Oops, an error
Loading. Please wait.

Detonation Tab

version 1
3,616 views 1 this week
7 commentsread comments
1 2 3 4 5
accurate
x 5
add to favorites
launch autoscroll
font size
0
reset
how to read this tab
guitar tuner
Autoscroll
slow
fast
+/-
esc
set tempo
stop
Help us to improve Ultimate-Guitar.com Take our survey!
×
Author
Difficulty
intermediate
Second solo (matt's, 2:45)

Not sure about the arpeggios, but the rest i am confident is correct

E|-------------------------------------------------------------------|
B|-------------------------------------14-12-10----------------------|
G|------------------14-13-11----11-13-----------14-13h14p13-12-13~---|
D|---------11----------------14--------------------------------------|
A|-9-11-12----12-11--------------------------------------------------|
E|-------------------------------------------------------------------|
  PM-----------------------------------------------------------------|

E|-14----14-16----16-17~-16-14-16---16-17-19~--19-17-16-------------|
B|----14-------14---------------------------------------------------|
G|------------------------------------------------------------------|
D|------------------------------------------------------------------|
A|------------------------------------------------------------------|
E|------------------------------------------------------------------|

E|-19p15---------------17p13----------------------------------------|
B|-------17------------------15-------------------------------------|
G|----------16------------------14---------16p14p13h14p13p11--------|
D|-------------17------------------15-------------------------------|
A|----------------19/-----------------17/---------------------------|
E|------------------------------------------------------------------|

E|------------------------------------------------------------------|
B|------------------------------------------------------------------|
G|----4------14-14-14p13-13-13-13p11-11-11-11p9-9-9-9p7-7/----------|
D|-/6---6~----------------------------------------------------------|
A|------------------------------------------------------------------|
E|------------------------------------------------------------------|

E|------------------------------------------------------------------|
B|------------------------------------------------------------------|
G|-----------------------------------------------11h13h14-11h13h14--|
D|-------------------------------9h11h12-9h11h12--------------------|
A|---------------9h11h12-9h11h12------------------------------------|
E|-7h9h10-7h9h10----------------------------------------------------|

E|-14p12p10-14p12p10------------------------------------------14~---|
B|-------------------14p12p10-14p12p10------------------------------|
G|--------------------------------------13b(14~)--13b(14~)p11-------|
D|------------------------------------------------------------------|
A|------------------------------------------------------------------|
E|------------------------------------------------------------------|
Suggest correction
What's this?
You can suggest a correction to this tab. Community and Mods will review your correction and vote to approve or reject it.
comments
print report bad tab
7 comments total. Showing first comments.
0 reply
_RATM_ 364 wrote on October 19 2006, 04:49 pm

wat u got sounds pretty good, except yeah the downsweeped arpeggios, but imnot expert on those either....think u could get more or the solo?

0 reply
Dewy141 677 wrote on December 4 2006, 04:07 pm

Ya man it's decend except for the appregios

0 reply
Kevin67 135 wrote on March 17 2007, 08:09 pm

I got this for the arpeggios

|-19p14---------------------14-|
|-------15----------------15---|
|---------16------------16-----|
|-----------16--------16-------|
|-------------17-14h17---------|
|------------------------------|

|-17p12------------------12----|
|------12--------------12------|
|--------13----------13--------|
|----------14------14----------|
|------------14--14------------|
|--------------12--------------|

guest
You may want to rate the tab now too:
select rating
Please do not post tabs as comments. Select "correction" instead!