Oops, an error
Loading. Please wait.

Detonation Tab

version 2
1,524 views 1 this week
4 commentsread comments
1 2 3 4 5
accurate
x 3
add to favorites
launch autoscroll
font size
0
reset
how to read this tab
guitar tuner
Autoscroll
slow
fast
+/-
esc
set tempo
stop
Help us to improve Ultimate-Guitar.com Take our survey!
×
Author
Difficulty
intermediate
this is matt's sweeping solo from detonation

E|---------------------------12----------------12---17----------------17-|
B|----14----------------14------14----------14---------17----------17----|
G|-------14----------14------------14----14---------------18----18-------|
D|----------16----16------------------14---------------------19----------|
A|-------------16--------------------------------------------------------|
E|-----------------------------------------------------------------------|
                      
E|--16b1/2--16~-------------------|
B|---------------17--14--17bfull--|
G|--------------------------------|
D|--------------------------------|
A|--------------------------------|
E|--------------------------------|

E|-------------9-12p9-----------------------------9-12p9-------------|
B|-----------9--------9-------------------------9--------9-----------|
G|---------10----------10--------------------10-----------10---------|
D|-------11--------------11----------------11---------------11-------|
A|-----11------------------11-----------11--------------------11-----|
E|-9h12----------------------12p9--9h12-------------------------12p9-|

E|--------------12-15p12----------------------------12-15p12--------------|
B|------------12--------12------------------------12--------12------------|
G|----------13------------13--------------------13------------13----------|
D|--------14----------------14----------------14----------------14--------|
A|------14--------------------14------------14--------------------14------|
E|-12h15------------------------15p12--12h15------------------------15p12-|



E|---------------------------12----------------12---17----------------17-|
B|----14----------------14------14----------14---------17----------17----|
G|-------14----------14------------14----14---------------18----18-------|
D|----------16----16------------------14---------------------19----------|
A|-------------16--------------------------------------------------------|
E|-----------------------------------------------------------------------|

E|--16b1/2--16~----17-14-18b1/2--|
B|-------------------------------|
G|-------------------------------|
D|-------------------------------|
A|-------------------------------|
E|-------------------------------|

E|-------------9-12p9-----------------------------9-12p9-------------|
B|-----------9--------9-------------------------9--------9-----------|
G|---------10----------10--------------------10-----------10---------|
D|-------11--------------11----------------11---------------11-------|
A|-----11------------------11-----------11--------------------11-----|
E|-9h12----------------------12p9--9h12-------------------------12p9-|

E|--------------12-15p12----------------------------12-15p12--------------|
B|------------12--------12------------------------12--------12------------|
G|----------13------------13--------------------13------------13----------|
D|--------14----------------14----------------14----------------14--------|
A|------14--------------------14------------14--------------------14------|
E|-12h15------------------------15p12--12h15------------------------15p12-|


 im pretty sure thats 98-100% right so rate it 5 stars! :-)
Suggest correction
Give kudos to tab author, rate the tab!
1 2 3 4 5
comments
print report bad tab
4 comments total. Showing first comments.
0 reply
Freaking Out 792 wrote on January 31 2007, 04:47 am

Sorry mate, but the notes are wrong. The arpeggios are 5 string sweeps, not 6. The start of the solo starts with 9p5 on the e string.

0 reply
HerVoiCeResIdEs 103 wrote on January 31 2007, 04:08 pm

it depends on how you wanna play it actually..cuz the 9th on the high e is the same note as the 14th on the b...this is kinda right, but still, not completely

0 reply
TriviumCrusade 63 wrote on January 31 2007, 04:20 pm

thats just what it looked like he was playing in a live video i saw him doing, and it sounded pretty close

guest
You may want to rate the tab now too:
select rating
Wanna post a correction for this tab? Suggest correction