Oops, an error
Loading. Please wait.

Detonation Tab

version 2
5,063 views 1 this week
6 commentsread comments
1 2 3 4 5
accurate
x 4
add to favorites
launch autoscroll
font size
0
reset
how to read this tab
guitar tuner
Autoscroll
slow
fast
+/-
esc
set tempo
stop
Help us to improve Ultimate-Guitar.com Take our survey!
×
Author
Difficulty
intermediate
--------------------------------------------------------------------------
                Detonation - Trivium
--------------------------------------------------------------------------
Tabbed by: Ben Freestone
Email: rock_for_freedom@hotmail.co.uk

Tuning:E standard

Intro riff ( Both guitars )
e|-------------------------------------------------------------|
B|-------------------------------------------------------------|
G|--4----3----4----3--6-6---4----3-----------------------------|
D|--2----1----2----1--4-4---2----1-----------------------------|
A|--2----1----2----1--4-4---2----1------1-4-1-------3-6-3------|
E|----0---------0------------00----0-3-------3-2-5-------5-----|
 |    .         .            ..    . .         . .
e|-------------------------------------------------------------|
B|-------------------------------------------------------------|
G|--4----6----4----6--9-9----4----6----------------------------|
D|--x----x----x----x--x-x----x----x----------------------------|
A|--2----4----2----4--7-7----2----4------4-7-4-------6-9-6-----|
E|----00--------00-------------00----3-6-------6-5-8-------8---|

Main riff ( Matt Plays Once On His Own )
e|-------------------------------------------------------------------|   |------------|
B|-------------------------------------------------------------------|   |------------|
G|-------------------------------------------------------------------|   |------------|
D|1----1----1----2p1-1-1----1----5\--------------1----1----1----2----|   |3--6--4--7--|
A|1----1----1----2p1-1-1----1----5\------2-----1-1----1----1----2----|   |1--4--2--5--|
E|--00---00---00---------00---00-----2-3---0-2-----00---00---00---00-|   |1--4--2--5--|
    ..   ..   ..         ..   ..     . .   . .     ..   ..   ..   ..

Bridge
e|--------------------------|   |----------|
B|--------------------------|   |----------|
G|-4-----4/9-----6-----6/10-|   |-4-----7--|
D|-x-----x-x-----x-----x-x--|x3 |-2-----5--|
A|-2-----2/7-----3-----3/8--|   |-2-----5--|
E|---000-----000---000------|   |----------|

Last riff
e|------------------------------------------------------------------------|
B|------------------------------------------------------------------------|
G|--------------------------------------4---------------------------------|
D|11-11---12---14--11---------6-6---7---x--6---------6-6---7---9-6--------|
A|-9--9-9--9-9--9--9--9999999-4-4-4-4-4-4--4-4444444-5-5-5-5-5-5-5-5555555|
E|------------------------------------------------------------------------|
        .    .        .......     .   .      .......     .   .     .......
e|----------------|
B|----------------|
G|-2--2-----------|
D|-2--2---6--2-2--|
A|-0--0---6--2-2--|
E|--------4--0-0--|

Melody Behind ( Last Riff ) - i think corey plays it ( Rock AM Ring )

e|----------------------------||-----------------------||---------------------|
B|----------------------------||-----------------------||---------------------|
G|-14--14--14-13-13~~---------||-9--9--9-11-11~~~------||-14--14--14-13-13~~~-|
D|----------------------------||-----------------------||---------------------|
A|----------------------------||-----------------------||---------------------|
E|----------------------------||-----------------------||---------------------|

e|----------------------------||-----------------------||---------------------|
B|----------------------------||-----------------------||---------------------|
G|----------------------------||----------4------------||---------------------|
D|11-11---12---14--11---------||6-6---7---x--6---------||6-6---7---9-6--------|
A|-9--9-9--9-9--9--9--9999999-||4-4-4-4-4-4--4-4444444-||5-5-5-5-5-5-5-5555555|
E|----------------------------||-----------------------||---------------------|
        .    .        .......     .   .      .......     .   .     .......


e|---------------------| 
B|-14--14--14-12-12-~~-| 
G|---------------------| 
D|---------------------| 
A|---------------------| \    /   ----                  
E|---------------------|  \  /       /              
                           \/       /                                
e|---------------------|   /\      /                   
B|---------------------|  /  \    /                
G|-2--2----------------| /    \   ----                 
D|-2--2---6--2-2-------|     
A|-0--0---6--2-2-------|
E|--------4--0-0-------|
                                                     

( play this at the very end ( the last 2 bars of the second time )

e|-------------------------| |-------|
B|-14-14-14-12-12-10-10-9--| |-7~~---|
G|-------------------------| |-------|
D|-------------------------| |-------|
A|-------------------------| |-------|             
E|-------------------------| |-------|                                     

e|-------------------------| |-------|                
B|-------------------------| |-------|              
G|-2------2----------------| |-------|                
D|-2------2--------6--2-2--| |-4-----|    
A|-0------0--------6--2-2--| |-4-----|
E|-----------------4--0-0--| |-2-----|






| /  slide up
| \  slide down
| h  hammer-on
| p  pull-off
| ~  vibrato
| +  harmonic
| x  Mute note
==========================================================================

Suggest correction
comments
print report bad tab
6 comments total. Showing first comments.
0 reply
METSOAD 1,622 wrote on August 11 2006, 03:59 pm

loads missing and whats there looks a little odd

0 reply
brokenunder 364 wrote on August 18 2006, 04:23 am

yeh dude u gotta check this tab cuz there a a few bits missing

0 reply
brokenunder 364 wrote on August 21 2006, 10:35 am

this is wrong especially the second melody(the softer one)

guest
You may want to rate the tab now too:
select rating
Wanna post a correction for this tab? Suggest correction