Oops, an error
Loading. Please wait.

Detonation Tab

version 4
1,841 views 6 this week
no commentswrite comment
1 2 3 4 5
worth learning
x 4
add to favorites
launch autoscroll
font size
0
reset
how to read this tab
guitar tuner
Tab Pro tools
  • play this tab
  • loop segment
  • change instrument
  • show fretboard
  • metronome
Autoscroll
slow
fast
+/-
esc
set tempo
stop
Contributor
Difficulty
intermediate
Trivium-Detonation
tuning-standard-high to low-EADGBe

.-palm mute
m-mute after striking note
/-slide up
\-slide down
b-bend
h-hammer-on
p-pull-off

Some parts may  seen wrong, but if you slow down the song and listen 
to each channel individually, you can hear it sounds correct-Josh

intro 0:00-0:13
Guitar 1	
|-------------------------------------|-------------------------|
|-------------------------------------|-------------------------|
|-4-----3--4-----3--6-6-6-6---4-----3-|-------------------------|
|-2-----1--2-----1--4-4-4-4---2-----1-|-----4/7---------4/7\5---|
|-2-----1--2-----1--4-4-4-4---2-----1-|---2-----5\2---3-------3-|
|---0-0------0-0----------------0-0---|-2-----------3-----------| x2
    . .      . .                . .     . .
 
Guitar 2
|------------------------------------|---------------------------|
|------------------------------------|---------------------------|
|-7-----6--7-----6--9-9-9-9---7-----6|---------------------------|
|------------------------------------|-----7/10---------7/11\7---|
|-5-----4--5-----4--7-7-7-7---5-----4|---5------8--------------8\|
|---0-0------0-0----------------0-0--|-5----------8\5/9----------| x2
    . .      . .                . .    . .

pre-verse 0:13-0:19
Guitar 1
|------------------------------------------------------------|
|------------------------------------------------------------|
|------------------------------------------------------------|
|-1-----1-----1-----2\1---1-----1-----1-----4\---------------|
|-1-----1-----1-----2\1-1-1-----1-----1-----4\-------2-----1-|
|---0-0---0-0---0-0---------0-0---0-0---0-0----0-2-3---2-3---|
    . .   . .   . .         . .   . .   . .    . . .   . .      

|-----------------------|
|-----------------------|
|-----------------------|
|-1-----1-----1-----2\1-|
|-1-----1-----1-----2\1-|
|---0-0---0-0---0-0-----|
    . .   . .   . .

pre verse 0:19-0:20
Guitar 1 and 2 
|---------|
|---------|
|---------|
|-3-6-4-7-|
|-1-4-2-5-|
|-1-4-2-5-|

verse 0:20-0:44
Guitar 1 and 2 
|------------------------------------------------------------|
|------------------------------------------------------------|
|------------------------------------------------------------|
|-1-----1-----1-----2\1---1-----1-----1-----4\---------------|
|-1-----1-----1-----2\1-1-1-----1-----1-----4\-------2-----1-|
|---0-0---0-0---0-0---------0-0---0-0---0-0----0-2-3---2-3---|
    . .   . .   . .         . .   . .   . .    . . .   . .    

|-------------------------------|
|-------------------------------|
|-------------------------------|
|-1-----1-----1-----2\1-3-6-4-7-|
|-1-----1-----1-----2\1-1-4-2-5-|
|---0-0---0-0---0-0-----1-4-2-5-| x3
    . .   . .   . .

chorus 0:44-0:58
Guitar 1
|------------------------------------------------------------|
|------------------------------------------------------------|
|-4-----3-------------4-----3--6-6-6-6---4-----3-------------|
|-2-----1-------------2-----1--4-4-4-4---2-----1-------------|
|-2-----1-------------2-----1--4-4-4-4---2-----1-------------|
|---0-0---0-000-0-0-0---0-0----------------0-0---0-000-0-0-0-|
    . .   . ... . . .   . .                . .   . ... . . .           

|-------------------------|
|-------------------------|
|-------------------------|
|-----4/7---------4/7\5---|
|---2-----5\2---3-------3-|
|-2-----------3-----------| x2
  . .

Guitar 2
|------------------------------------------------------------|
|------------------------------------------------------------|
|-7-----6-------------7-----6--9-9-9-9---7-----6-------------|
|------------------------------------------------------------|
|-5-----4-------------5-----4--7-7-7-7---5-----4-------------|
|---0-0---0-000-0-0-0---0-0----------------0-0---0-000-0-0-0-|
    . .   . ... . . .   . .                . .   . ... . . .      

|---------------------------|
|---------------------------|
|---------------------------|
|-----7/10---------7/11\7---|
|---5------8--------------8\|
|-5----------8\5/9----------| x2
  . .

verse x2 0:58-1:13

chorus x2 1:13-1:27

pre bridge 1:27-1:33
guitar 1
|------------------------------------------------------------------------|
|------------------------------------------------------------------------|
|------------------------------------------------------------------------|
|------------------------------------------------------------------------|
|-1-1-1-1--1-1-1-1--1-1-1-1--1-1-1-1--1-1-1-1--1-1-1-1--1-1-1-1--1-1-1-1-|
|-0-0-0-0--0-0-0-0--0-0-0-0--0-0-0-0--0-0-0-0--0-0-0-0--0-0-0-0--0-0-0-0-|

Guitar 2
|------------------------------------------------------------------------|
|------------------------------------------------------------------------|
|------------------------------------------------------------------------|
|------------------------------------------------------------------------|
|----------1-1-1-1-----------1-1-1-1--1-1-1-1--1-1-1-1--1-1-1-1--1-1-1-1-|
|----------0-0-0-0-----------0-0-0-0--0-0-0-0--0-0-0-0--0-0-0-0--0-0-0-0-|

Bridge 1:33-1:51
Guitar 1 
|-----------------------------|    |---------------------------3--3---|
|-----------------------------|    |---------------------------6--6-7-|
|-3-----3/6-----4-----4-7-----|    |-3-----3/6-----4-----4-7---5--5-8-|
|-----------------------------|    |---------------------------5--5-8-|
|-1-----1/4-----2-----2/5-----|    |-1-----1/4-----2-----2/5---3--3-6-|
|---000-----000---000-----000-| x2 |---000-----000---000--------------| all x2
    ...     ...   ...     ...          ...     ...   ...

Guitar 2
|-----------------------------|    |---------------------------3--3---|
|-----------------------------|    |---------------------------6--6-7-|
|-6-----6/9-----7-----7/10----|    |-6-----6/9-----7-----7/10--5--5-8-|
|-----------------------------|    |---------------------------5--5-8-|
|-4-----4/7-----5-----5/8-----|    |-4-----4/7-----5-----5/8---3--3-6-|
|---000-----000---000-----000-| x2 |---000-----000---000--------------| all x2
    ...     ...   ...     ...

Backing to Solo 1 1:51-2:10
Guitar 1 and 2
|---------------------------------------------------|
|---------------------------------------------------|
|---------------------------------------------------|
|------------------3-3-3-3--------------------------|
|------------------1-1-1-1------------------3-3-3-3-|
|-0000000000000000---------0000000000000000-1-1-1-1-| x4
  ................ m m m m ................ m m m m


bridge x2 2:10-2:19


Pre Chorus 2 2:19-2:26
Guitar 1
|-----------------------------------------------------------|
|-----------------------------------------------------------|
|-----------------------------------------------------------|
|-11-11-11-12-9-11----------------6-6-6-7-4-6---------------|
|-9--9--9--9--9-9--9-9-9-9-9-9-9--4-4-4-4-4-4-4-4-4-4-4-4-4-|
|-----------------------------------------------------------|
           m  m    . . . . . . .        m m   . . . . . . .  

|---------------------------|
|---------------------------|
|---------------------------|
|-6-6-6-7-4-6---------------|
|-5-5-5-5-5-5-5-5-5-5-5-5-5-|
|---------------------------|
        m m   . . . . . . .

Pre Chorus 2 2:26-2:28
|-----------|
|-----------|
|-----------|
|-----------|
|-7-7-7-7-7-|
|-5-5-5\4-4-|

Chorus 2\Backing to Solo 2 2:28-3:04
Guitar 1 and 2
|-----------------------------------------------------------|
|-----------------------------------------------------------|
|-----------------------------------------------------------|
|-11-11-11-12-9-11----------------6-6-6-7-4-6---------------|
|-9--9--9--9--9-9--9-9-9-9-9-9-9--4-4-4-4-4-4-4-4-4-4-4-4-4-|
|-----------------------------------------------------------|
           m  m    . . . . . . .        m m   . . . . . . .  

|-------------------------------------|
|-------------------------------------|
|-------------------------------------|
|-6-6-6-7-4-6-------------------------|
|-5-5-5-5-5-5-5-5-5-5-5-5-5-7-7-7-7-7-|
|---------------------------5-5-5\4-4-| x4
        m m   . . . . . . .

2nd Pre Chorus 2/Backing to Solo 3 3:04-3:41
Guitar 1 and 2                                      3rd time          
|--------------------------------------------------|-----------------|
|--------------------------------------------------|-----------------|
|--------------------------------------------------|-----------------|
|--------------------------------------------------|-----------------|
|-4-4-4-4-4-0-0-0-2-2-2-2-2-2-2-2--4-4-4-4-4-0-0-0-|-2-2-2-2-2-2-2-2-|
|-2-2-2-2-2-2-2-2-0-0-0-0-0-4-4-4--2-2-2-2-2-2-2-2-|-0-0-0-0-0-4-4-4-|
                                                       . . . .         
4th time
|-----------------|
|-----------------|
|-----------------|
|-----------------|
|-2-2-2-2-2-2-2-2-|
|-0-0-0-0-0-4-4-4-| x4
    . . . . . . .
Chorus 2 plus Leads x4 3:41-4:28

Chorus 2 Lead 1                  					    
|--------------------------------------------------------------------------|
|--------------------------------------------------------------------------|
|-14-14-14-14p13-13-13h14p13p11-9-9-9h11-11--14-14-14-14p13-13-13h14p13p11-|
|--------------------------------------------------------------------------|
|--------------------------------------------------------------------------|
|--------------------------------------------------------------------------|

1st-3rd times
|-------------|
|-14-14p12-12-|
|-------------|
|-------------|
|-------------|
|-------------|

Lead 2									    
|--------------------------------------------------------------------------|
|-14-14-14-14p12-12-12h14h12h10-9-9-9h10-10--14-14-14-14p12-12-12h14h12h10-|
|--------------------------------------------------------------------------|
|--------------------------------------------------------------------------|
|--------------------------------------------------------------------------|
|--------------------------------------------------------------------------|

1st-3rd times
|-12-12h14-14-|
|-------------|
|-------------|
|-------------|
|-------------|
|-------------|

Guitar 1 and 2
|---|
|---|
|---|
|---|
|-4-|
|-2-|

Lead 1

|-------------------------|
|-14-14p12-12p10----------|
|----------------14p13-11-|
|-------------------------|
|-------------------------|
|-------------------------|
 
Lead 2 
|-12-12h14-14-16b|
|----------------|
|----------------|
|----------------|
|----------------|
|----------------|
comments
print report bad tab
I want to post or [tab]
guest
You may want to rate the tab now too:
select rating
Please do not post tabs as comments. Select "correction" instead!