Oops, an error
Loading. Please wait.

Down From The Sky Tab

version 4
15,142 views 1 this week
8 commentsread comments
1 2 3 4 5
x 12
add to favorites
launch autoscroll
font size
0
reset
how to read this tab
guitar tuner
Autoscroll
slow
fast
+/-
esc
set tempo
stop
Help us to improve Ultimate-Guitar.com Take our survey!
×
Author
Difficulty
intermediate
Artist: Trivium
Album: Shogun (2008)
Song: Down From The Sky
Tabbed by: Dan O'Brien (danobrien@dsl.pipex.com)

Tuning: Standard

XXXX __READ THIS__XXXX
Ive just tabbed out the bits I play, so this is neither Matt or Coreys part. This song 
played on 7
String guitars but ive tabed it out for 6 string. So there is no need to comment saying
it is played
on a 7 string. Also, the parts that have a lot of 7 string in them will sound high 
i had to move
them up an octave. If ya need dome help, watch this video:
http://www.youtube.com/watch?v=rKdVcRlW0II


Intro.   Let the open B string ring through-out
e|---------------------------------------------------------------------------------|
B|-0---0-00-00--------------0---0-00-00--------------0---0-00-00---------------0---|
G|-2h4-4-44-44------6h7p6---2h4-4-44-44--------------2h4-4-44-44--------6h7p6------|
D|-------------2p0-------7--------------2p0-----------------------2p0--------7-----|
A|----------------2------------------------2-4h5p4-------------------2-------------|
E|------------------------------------------------5--------------------------------|

-------------------------------|
-0-00-00-00-00-00-00-----------|
2h4-4-44-44-44-66-77-99--------|
-------------------------------|
-------------------------------|
-------------------------------|

Intro Ending.
e|--------------------------------------------|
B|--------------------------------------------|
G|-11-11-11-11--11---9-7-9----7---------------|
D|-9--9--9--9------9-------11---9-------------|
A|--------------------------------------------|
E|--------------------------------------------|


Verse
e|----------------------------------------------------------------------------------------------|
B|----------------------------------------------------------------------------------------------|
G|---------------------------------666-77-99------------------------------999-1111-1616---------|
D|---------------------------------xxx-xx-xx------------------------------xxx-x-x---x-x---------|
A|------9-------9-------5-------2--444-55-77------9-------9-------5-------777-9-9--1414---------|
E|-7777-7--7777-7--3333-3--0000-0------------7777-7--7777-7--3333-3--0000-----------------------|
PM ....    ....    ....    ....              ....    ....    ....    ....


Pre Chrous
e|-----------------------------------------------------------------------------------------|
B|-----------------------------------------------------------------------------------------|
G|o---------------------------------------------------------------------------------------o|
D|o---------------------------------------------------------------------------------------o|
A|------------------------------------445577-------------------------5-4-5-0-00--/7-4------|
E|-7-5-7-0-00--7-5-7-0-00--7-5-7-0-00--------3-2-3-0-00--3-2-3-0-00------------------------|
PM         ..          ..          ..                ..          ..          ..


Chorus Lead-In
e|------------------------------------------------------------|
B|------------------------------------------------------------|
G|------------------------------------------------------------|
D|-5555-7777-9999-10101010--7777-9999-10101010-12121212-------|
A|-xxxx-xxxx-xxxx- x-x-x-x--xxxx-xxxx--x-x-x-x--x-x-x-x-------|
E|-3333-5555-7777--9-9-9-9--5555-7777--9-9-9-9-10101010-------|


Chrous                                         1st Ending
e|-------------------------------------------|-----------------------|
B|-------------------------------------------|-----------------------|
G|-----11-11-9~-----11-9-11-12-11~-----9-9-7-|-7\6-6\4-2/4-4-3-4/6~--|
D|-9-9----------9-9----------------7-7-------|-----------------------|
A|-------------------------------------------|-----------------------|
E|-------------------------------------------|-----------------------|

2nd Ending
e|----------------------------------------|
B|--8--------5--------7-------------------|
G|----7-6-7----7-6-4----6-4-3--6-3-4*-----|
D|----------------------------------------|
A|----------------------------------------|
E|----------------------------------------|

Play from Verse to Chrous


Bridge.
e|---------------------|----------------------------|
B|---------------------|----------------------------|
G|o-------------------o|o--------------------------o|
D|o---------------5---o|o--------------------------o|Play these notes normally, then 
triplets
A|-8b--5--2-4-5-2---5--|----------------------------|and then Tremelo pick them.
E|---------------------|--0-7-2-3-7-2-6-2-----------|


Solo (there are 3 or 4 harmonys to this so i tabbed out 1 coz i couldn't be arsed to do 
all:D)
e|-13~--------------------13-16------20~--------------------17-20-------------|
B|-----15~----------12-15-------16-------19~----------16-19-------19----------|
G|---------------13-----------------------------14-17-------------------------|
D|---------12-15-----------------------------16-------------------------------|
A|----------------------------------------------------------------------------|
E|----------------------------------------------------------------------------|

e|------------------------------------------------------------------------------------|
B|-191814-191814-191814-191814-191814-191814-191813-191813-191813-191813-191813-191813|
G|------------------------------------------------------------------------------------|
D|------------------------------------------------------------------------------------|
A|------------------------------------------------------------------------------------|
E|------------------------------------------------------------------------------------|

e|--------------------------------------------------------------------------------|
B|-191812-191812-191812-191812-191812-191812--------------------------------12-14-|
G|-----------------------------------------------------------------10-11-13-------|
D|---------------------------------------------------------9-10-12----------------|
A|--------------------------------------------------8-9-11------------------------|
E|-------------------------------------------7-9-10-------------------------------|

---13-14-15-16----<16>--------|
15------------16-----<16>-----|
------------------------<16>--|
------------------------------|
------------------------------|
------------------------------|

Do Chorus again but with this solo (its very quick)
e|-----------------------------------------------------------------7h9p7-----------|
B|----------------------------------------------7h8p7-------7-8-10-------10-8-10---|
G|-------------------4-6-7-6*--6h7p6------6-7-9-------9-7-9------------------------|
D|-------------4-5-7----------------9-7-9------------------------------------------|
A|-------4-5-7---------------------------------------------------------------------|
E|-3-5-7---------------------------------------------------------------------------|
PM . . . . . . . . . . . .

7-9-10-12-10-9-10----9-10-12-19|
-----------------12------------|
-------------------------------|
-------------------------------|
-------------------------------|
-------------------------------|


Then:
Chorus
Bridge

Thats it. You probably know the order. Please rate and comment.
Suggest correction
comments
print report bad tab
8 comments total. Showing first comments. show 1 bad comment
+1 reply
lespaul93 390 Nov 10, 2008 03:32 PM

not really right ;)

0 reply
wasanga 56 Dec 06, 2008 12:27 AM

awesome!

guest
You may want to rate the tab now too:
select rating
Wanna post a correction for this tab? Suggest correction