Oops, an error
Loading. Please wait.

Drowned And Torn Asunder bass

version 1
version 1

Whole song

by Trivium
1,339 views 1 this week
1 commentread comment
1 2 3 4 5
2 more votes to show rating
add to favorites
×
Save as Personal and add changes to this tab that will be seen only by you. Learn more ›
×
You can save this tab as Personal to edit and correct it or add notes. All changes will be seen only by you. Learn more »
launch autoscroll
font size
0
reset
guitar tuner
edit
Autoscroll
slow
fast
+/-
esc
set tempo
stop
here it is, the first drowned and torn asunder bass tab. this tab was done completely by 
so dont throw a hissy fit if some parts are incorrect.

Intro x4
G[-----------------------------------]
D[-----------------------------------]
A[-----------------------------------]
D[-0-0-0-0-0-0-0-0-8888888888888888--]

Pre-verse
G[---------------]
D[---------------]
A[---------------]
D[---0------0----]

Verse x4
G[--------------------------------------------------]
D[-----------------------------(dont play this |2---]nd time)
A[-2----5--------6-5--2-----5------|-----------|----]
D[--0-0---0-0-0---------0-0---0-0--|3-2-0-3-2-0|----]

Pre-chorus
G[--------------------------------]
D[--------------------------------]
A[--------------------------------]
D[-5555555555555555555555555555---]
   just repeat these 5's however many times necessary

Chorus x2
G[-------------------------------------------------------------------------]
D[--------------------------------2-3-5------------------------------------]
A[-2-------5-6-2----------2-3-5-----------2--------5-6-2-------------------]
D[--000000-------000000-0-------0-----------000000-------000000-0-0-0-7-7-7]

2nd part of chorus x2
G[------------------------------]
D[------------------------------]
A[------------------------------]
D[--0--0--9--9--7--7--5--3-5-0--]

verse x1

Pre-chorus x1

Chorus x2

2nd part of chorus x2

First part of solo x5
G[-------------------]
D[-------------------]
A[-------------------]
D[--0~~~0-0--12--9-5-]

second part of solo x3 or 4 not sure yet
G[---------------------------------------------------]
D[-----------------------------333---222---222---333-]
A[----777---555---888---777-111---111---000----------]
D[-000---000---000---000----------------------333----]

Harmony
G[----------------------------]
D[----------------------------]
A[----------------------------]
D[-0-9-5-0~~~-0--9-7-5-3-1-0--]

Chorus x2
Second part of chorus x3

Outro
G[---------]
D[---------]
A[---------]
D[-0~~-00--]
Suggest correction
Creating personal tab
Creating personal tab
You can edit any tab online and save it as your Personal.

You can edit, replace or remove any tab part or add personal notes – all changes will be seen only by you.

Personal tabs can be accessed anytime from any device, even offline.
Learn more »
Give kudos to tab author, rate the tab!
1 2 3 4 5
comments
print report bad tab
1 comment total.
0 reply
bassplaya53 3,071 Oct 20, 2007 04:36 PM

for the secong part of the solo,play four times i just figured out and at the end when u play the second part of the chotus, play 4 times as well

guest
You may want to rate the tab now too:
select rating
Wanna post a correction for this tab? Suggest correction