Oops, an error
Loading. Please wait.

Drowned And Torn Asunder solo tab

version 1
version 1

Solo

Whole song

by Trivium
8,104 views 3 this week
5 commentsread comments
1 2 3 4 5
x 12
add to favorites
×
Save as Personal and add changes to this tab that will be seen only by you. Learn more ›
×
You can save this tab as Personal to edit and correct it or add notes. All changes will be seen only by you. Learn more »
launch autoscroll
font size
0
reset
how to read this tab
guitar tuner
edit
Autoscroll
slow
fast
+/-
esc
set tempo
stop
-DROWNED AND TORN ASUNDER (SOLO)-
	-TRIVIUM-
TABBED BY GREG

DROPPED D TUNING [D-A-D-G-B-E]
4/4 TIME
  GUITAR 1(COREY):
   +                 +                 +                 +
   T T T  T Q~~~~~~~~~~~~~~~~ T T T  T Q~~~~~~~~~~~~~~~~ S   S   S  E
e|-------------------------------------------------------------------------|
B|-------------------------------------------------------------------------|
G|-7h9h10p7-9-----------------7h9h10p7-9-----------------11--10--8--10-----|
D|-------------------------------------------------------------------------|
A|-------------------------------------------------------------------------|
D|-------------------------------------------------------------------------|
 |                                                       |---3---|
 |GUITAR 2(MATT):
 | +                 +                 +                 +
 | S  S  S  S  S  S  S  S  S  S  S  S  S  S  S  S  S  S  S  S  S  S  S  S
e|-------------------------------------------------------------------------|
B|-------------------------------------------------------------------------|
G|-------------------------------------------------------------------------|
D|-------------------------------------------------------------------------|
A|----------7--7--7-----------5--5--5-----------8--8--8-----------7--7--7--|
D|-0--0--0-----------0--0--0-----------0--0--0-----------0--0--0-----------|
   |--3--|  |--3--|  |--3--|  |--3--|  |--3--|  |--3--|  |--3--|  |--3--|
   PM----]           PM----]           PM----]           PM----] 

  GUITAR 1(COREY):
   +                 +                 +                 +
   S  S  S  S  S  S  S  S  S  S  S  S  S  S  S  S  S  S  S  S  S  S  S  S
e|-17p13----------12-15p12----------12-18-17-15----------------------------|
B|-------15----15----------13----13-------------18-17-15-------------------|
G|----------14----------------12-------------------------17-15-14----------|
D|----------------------------------------------------------------17-15-14-|
A|-------------------------------------------------------------------------|
D|-------------------------------------------------------------------------|
 | |--3---| |--3---| |--3---| |--3---| |--3---| |--3---| |--3---| |--3---|
 |
 |GUITAR 2(MATT):
 | +                 +                 +                 +
 | S  S  S  S  S  S  S  S  S  S  S  S  S  S  S  S  S  S  S  S  S  S  S  S
e|-------------------------------------------------------------------------|
B|-------------------------------------------------------------------------|
G|-------------------------------------------------------------------------|
D|----------3--3--3-----------2--2--2-----------2--2--2-----------3--3--3--|
A|-1--1--1-----------1--1--1-----------0--0--0-----------------------------|
D|-------------------------------------------------------3--3--3-----------|
   |--3--|  |--3--|  |--3--|  |--3--|  |--3--|  |--3--|  |--3--|  |--3--|
   PM----]           PM----]           PM----]           PM----]

  GUITAR 1(COREY):
   +                 +                 +                 + 
   E        S  S  S  S  S  S  S  S  S  S  S  S  S  S  S  S  S  S  S  S  S  
e|-------------------------------------------------------------------------|
B|-------------------------------------------------------------------------|
G|-------------------------------------------------------------------------|
D|-------------------------------------------------------------------------|
A|-17\------7--7--7-----------5--5--5-----------8--8--8-----------7--7--7--|
D|-------------------0--0--0-----------0--0--0-----------0--0--0-----------|
 |          |--3--|  |--3--|  |--3--|  |--3--|  |--3--|  |--3--|  |--3--|
 |                   PM----]           PM----]           PM----]
 | 
 |GUITAR 2(MATT):
 | +                 +                 +                 +
 | S  S  S  S  S  S  S  S  S  S  S  S  S  S  S  S  S  S  S  S  S  S  S  S
e|-------------------------------------------------------------------------|
B|-15s10-10-10-13-13-13s8--8--8--10-10-10s6--6--6--8--8--8s-5--5--5--6--5--|
G|-------------------------------------------------------------------------|
D|-------------------------------------------------------------------------|
A|-------------------------------------------------------------------------|
D|-------------------------------------------------------------------------|
   |--3---| |--3---| |--3--|  |--3---| |--3--|  |--3--|  |--3--|  |--3--|

  GUITAR 1(COREY):
   +                 +                 +                 + 
   S  S  S  S  S  S  S  S  S  S  S  S  S  S  S  S  S  S  S  S  S  S  S  S
e|-------------------------------------------------------------------------|
B|-------------------------------------------------------------------------|
G|-------------------------------------------------------------------------|
D|----------3--3--3-----------2--2--2-----------2--2--2-----------3--3--3--|
A|-1--1--1-----------1--1--1-----------0--0--0-----------------------------|
D|-------------------------------------------------------3--3--3-----------|
 | |--3--|  |--3--|  |--3--|  |--3--|  |--3--|  |--3--|  |--3--|  |--3--|
 | PM----]           PM----]           PM----]           PM----]
 |
 |GUITAR 2(MATT):
 | +                 +                 +                 +
 | E       (S)(S) S  Q~~~~~~~~~~~~~~~~ S  S  S  S  S  S  Q~~~~~~~~~~~~~~~~
e|----------------------------------------10-------13----------------------|
B|-6bf---------r-p5--------------------------------------------------------|
G|-------------------7-----------------7-----7s-10----10s14----------------|
D|-------------------------------------------------------------------------|
A|-------------------------------------------------------------------------|
D|-------------------------------------------------------------------------|
            |--3--|                    |--3--|  |--3---|

  GUITAR 1(COREY):
   +                 +                 +                 +
   S  S  S  S  S  S  S  S  S  S  S  S  S  S  S  S  S  S  S  S  S  S  S  S
e|----------------------------------------------------------------10----10-|
B|----------------------------------------------10----11-10-11-13----13----|
G|----------------------------9-----10-9--10-12----12----------------------|
D|----------7-----8--7--8--10----12----------------------------------------|
A|-5--7--8-----10----------------------------------------------------------|
D|-------------------------------------------------------------------------|
 | |--3--|  |--3--|  |--3---| |--3---| |--3---| |--3---| |--3---| |--3---|
 | PM------------------------------------------]
 |
 |GUITAR 2(MATT):
 | +                 +                 +                 + 
 | S  S  S  S  S  S  S  S  S  S  S  S  S  S  S  S  S  S  S  S  S  S  S  S  
e|-------------------------------------------------------------------------|
B|-------------------------------------------------------------------------|
G|-------------------------------------------------------------------------|
D|-------------------------------------------------------------------------|
A|----------7--7--7-----------5--5--5-----------8--8--8-----------7--7--7--|
D|-0--0--0-----------0--0--0-----------0--0--0-----------0--0--0-----------|
 | |--3--|  |--3--|  |--3--|  |--3--|  |--3--|  |--3--|  |--3--|  |--3--|
   PM----]           PM----]           PM----]           PM----]

  GUITAR 1(COREY):
   +                 +                 +                 +
   S  S  S  S  S  S  S  S  S  S  S  S  E     E     E     Q~~~~~~~~~~~~~~~~
e|-13-12-10-12-10----10----------------13----12----------------------------|
B|----------------13----13-11-13-11p10-------------13----10----------------|
G|-------------------------------------------------------------------------|
D|-------------------------------------------------------------------------|
A|-------------------------------------------------------------------------|
D|-------------------------------------------------------------------------|
 | |--3---| |--3---| |--3---| |--3---| |-----3------|
 |
 |GUITAR 2(MATT):
 | +                 +                 +                 +
 |  S  S  S  S  S  S  S  S  S  S  S  S  S  S  S  S  S  S  S  S  S  S  S  S
e|-------------------------------------------------------------------------|
B|-------------------------------------------------------------------------|
G|-------------------------------------------------------------------------|
D|----------3--3--3-----------2--2--2-----------2--2--2-----------3--3--3--|
A|-1--1--1-----------1--1--1-----------0--0--0-----------------------------|
D|-------------------------------------------------------3--3--3-----------|
   |--3--|  |--3--|  |--3--|  |--3--|  |--3--|  |--3--|  |--3--|  |--3--|
   PM----]           PM----]           PM----]           PM----]

  GUITAR 1(COREY):
   +                 +                 +                 + 
   S  S  S  S  S  S  S  S  S  S  S  S  S  S  S  S  S  S  S  S  S  S  S  S  
e|-------------------------------------------------------------------------|
B|-------------------------------------------------------------------------|
G|-------------------------------------------------------------------------|
D|-------------------------------------------------------------------------|
A|----------7--7--7-----------5--5--5-----------8--8--8-----------7--7--7--|
D|-0--0--0-----------0--0--0-----------0--0--0-----------0--0--0-----------|
 | |--3--|  |--3--|  |--3--|  |--3--|  |--3--|  |--3--|  |--3--|  |--3--|
 | PM----]           PM----]           PM----]           PM----]
 |
 |GUITAR 2(MATT):
 | +                 +                 +                 +
 | S  S  S  S  S  S  E       (E)    S  E     E     E     E~~~~~~~ S  S  S
e|-------------------------------------------------------------------------|
B|-10-10-10-10-10-10-10----------------------------------------------------|
G|-x--x--x--x--x--x--x-----------------------------------------------------|
D|-7--7--7--7--7--7--7--------------7--7-----------------------------------|
A|-------------------------------------------10----8-----7-----------------|
D|----------------------------------------------------------------12-14-15-|
   |--3---| |--3---|          |--3--|  |-----3-----|              |--3---|

  GUITAR 1(COREY):
   +                 +                 +                 +
    S  S  S  S  S  S  S  S  S  S  S  S  S  S  S  S  S  S  S  S  S  S  S  S
e|-------------------------------------------------------------------------|
B|-------------------------------------------------------------------------|
G|-------------------------------------------------------------------------|
D|----------3--3--3-----------2--2--2-----------2--2--2-----------3--3--3--|
A|-1--1--1-----------1--1--1-----------0--0--0-----------------------------|
D|-------------------------------------------------------3--3--3-----------|
 | |--3--|  |--3--|  |--3--|  |--3--|  |--3--|  |--3--|  |--3--|  |--3--|
 | PM----]           PM----]           PM----]           PM----]
 |
 |GUITAR 2(MATT):
 | +                 +                 +                 +
 | StStStStStStStStStStStStStStStStStStStStStStStStStStS Q   ~~~~~~~~~~~~~
e|-------------------------------------------------------------------------|
B|-------------------------------------------------------------------------|
G|-------------------------------------------------12141517bf--------------|
D|-------------------121415121415------------121415------------------------|
A|-------121315121315------------121315121315------------------------------|
D|-121415------------------------------------------------------------------|
   |-3--||-3--||-3--||-3--||-3--||-3--||-3--||-3--||-3--|
   |-------3--------||-------3--------||-------3--------|

  GUITAR 1(COREY):
   +                 +                 +                 +
   S  S  S  S  S  S  S  S  S  S  S  S  S  S  S  S  S  S  Q~~~~~~~~~~~~~~~~
e|-13p10----10-------------------------------------------------------------|
B|-------11----11----11----------------------------------------------------|
G|----------------10----10----10-------------------------------------------|
D|-------------------------12----12-10-12p10----10-------------------------|
A|-------------------------------------------13----13-12-13----------------|
D|-------------------------------------------------------------------------|
 | |--3---| |--3---| |--3---| |--3---| |--3---| |--3---| 
 |
 |GUITAR 2(MATT):
 | +                 +                 +                 +
 | S  S  S  S  S  S  S  S  S  S  S  S  S  S  S  S  S  S  Q~~~~~~~~~~~~~~~~
e|-17p13----13-------------------------------------------------------------|
B|-------15----15----15----------------------------------------------------|
G|----------------14----14----14-------------------------------------------|
D|-------------------------15----15-14-15p14----14-------------------------|
A|-------------------------------------------17----12-15-17----------------|
D|-------------------------------------------------------------------------|
   |--3---| |--3---| |--3---| |--3---| |--3---| |--3---| 

  GUITAR 1(COREY):
   +                 +                 +                 +
   S  S  S  S  S  S  S  S  S  S  S  S  S  S  S  S  S  S  Q~~~~~~~~~~~~~~~~
e|-10p6-----6--------------------------------------------------------------|
B|-------8-----8-----8-----------------------------------------------------|
G|----------------7-----7-----7--------------------------------------------|
D|-------------------------8-----8--7--8p-7-----7--------------------------|
A|-------------------------------------------10----10-8--10----------------|
D|-------------------------------------------------------------------------|
 | |--3--|  |--3--|  |--3--|  |--3--|  |--3---| |--3--|
 |
 |GUITAR 2(MATT):
 | +                 +                 +                 +
 | S  S  S  S  S  S  S  S  S  S  S  S  S  S  S  S  S  S  Q~~~~~~~~~~~~~~~~
e|-13p10----10-------------------------------------------------------------|
B|-------11----11----11----------------------------------------------------|
G|----------------10----10----10-------------------------------------------|
D|-------------------------12----12-10-12p10----10-------------------------|
A|-------------------------------------------13----13-12-13----------------|
D|-------------------------------------------------------------------------|
   |--3---| |--3---| |--3---| |--3---| |--3---| |--3---|

  GUITAR 1(COREY):
   +                 +                 +                 +
   S  S  S  S  S  S  S  S  S  S  S  S  S  S  S  S  S  S  Q~~~~~~~~~~~~~~~~
e|-13p10----10-------------------------------------------------------------|
B|-------11----11----11----------------------------------------------------|
G|----------------10----10----10-------------------------------------------|
D|-------------------------12----12-10-12p10----10-------------------------|
A|-------------------------------------------13----13-12-13----------------|
D|-------------------------------------------------------------------------|
 | |--3---| |--3---| |--3---| |--3---| |--3---| |--3---| 
 |
 |GUITAR 2(MATT):
 | +                 +                 +                 +
 | S  S  S  S  S  S  S  S  S  S  S  S  S  S  S  S  S  S  Q~~~~~~~~~~~~~~~~
e|-17p13----13-------------------------------------------------------------|
B|-------15----15----15----------------------------------------------------|
G|----------------14----14----14-------------------------------------------|
D|-------------------------15----15-14-15p14----14-------------------------|
A|-------------------------------------------17----12-15-17----------------|
D|-------------------------------------------------------------------------|
   |--3---| |--3---| |--3---| |--3---| |--3---| |--3---| 

  GUITAR 1(COREY):
   +                 +                 +                 +
   E     E     E     E     E     E     E        E        Q  ~~~~~~~~~~~~~~
e|-13----15----17----15----17----18----18bf-----r--------bf----------------|
B|-------------------------------------------------------------------------|
G|-------------------------------------------------------------------------|
D|-------------------------------------------------------------------------|
A|-------------------------------------------------------------------------|
D|-------------------------------------------------------------------------|
 | |-----3------|    |-----3------|  
 |
 |GUITAR 2(MATT):
 | +                 +                 +                 +
 | E     E     E     E     E     E     E        E        Q  ~~~~~~~~~~~~~~
e|-------------------------------------------------------------------------|
B|-15----17----18----19----18----20----20bf-----r--------bf----------------|
G|-------------------------------------------------------------------------|
D|-------------------------------------------------------------------------|
A|-------------------------------------------------------------------------|
D|-------------------------------------------------------------------------|
   |-----3------|    |-----3------|



KEY: 
	+ - DOWNBEAT
	Q - QUARTER NOTE
	E - EIGHTH NOTE
	S - SIXTEENTH NOTE
	T - THIRTY-SECOND NOTE
        ()- SUSTAINED TIE
	t - TREMOLO PICKED
	p - PULL-OFF
	h - HAMMER-ON
	~ - VIBRATO
	PM - PALM MUTE
	bf - BEND FULL
	r - RELEASE
	x - MUTED NOTE
	s - SLIDE TO
	\ - SLIDE DOWN

ALL OF THE LINES SHOULD BE THE EXACT SAME SIZE AS ALL THE OTHER LINES. THEY SHOULD ALSO
BE IN PERFECT TIME WITH THE OTHER LINES. I APOLOGIZE FOR THE LACK OF A SECOND HARMONY
GUITAR FOR THE MOST OF THE SOLO, BUT PRETTY MUCH ALL IT IS A THIRD HIGHER OR LOWER THAN
THE WRITTEN NOTES, STAYING IN THE STRUCTURE OF D AEOLIAN [D-E-F-G-A-Bb-C-D]. IF YOU HAVE
ANY QUESTIONS OR COMMENTS EMAIL ME AT JAPSLAPTER101@AOL.COM

            
            
Suggest correction
Creating personal tab
Creating personal tab
You can edit any tab online and save it as your Personal.

You can edit, replace or remove any tab part or add personal notes – all changes will be seen only by you.

Personal tabs can be accessed anytime from any device, even offline.
Learn more »
comments
print report bad tab
5 comments total. Showing first comments.
0 reply
ENDOFHEARTACHE 10 Feb 27, 2006 01:40 PM

haha its perfectly tabbed.....right out of guitar world magazine..(april 2006 edtion) but good job anyways

0 reply
ak Gitaroo Man 173 Feb 27, 2006 03:46 PM

yeah it's tabbed out of the april 06 issue of Guitar World but it's not tabbed perfect. on the first line you messed up with the 11-10-8-10 part. you tabbed it on the wrong string. it should be on the B string not the G string.

0 reply
Adam*The Chaos* 51 Jun 18, 2006 05:08 PM

Yea that tab is off the guitar world mag I just checked lol but good job anyway....copying

guest
Wanna post a correction for this tab? Suggest correction