Oops, an error
Loading. Please wait.

Dying In Your Arms Tab

version 1
21,887 views 15 this week
15 commentsread comments
1 2 3 4 5
accurate
x 14
add to favorites
launch autoscroll
font size
0
reset
how to read this tab
guitar tuner
Autoscroll
slow
fast
+/-
esc
set tempo
stop
Help us to improve Ultimate-Guitar.com Take our survey!
×
Difficulty
novice
----------------------------------------------------------------------------
		  Dying In Your Arms (Acoustic) - Trivium
----------------------------------------------------------------------------
Tabbed by: Sam B

Tried tabbing this as a req from someone.

Tuning: Drop D (DADGBe)

p  - Pull off
h  - Hammer on
~  - Vibrato
x  - Muted Note
PM - Palm Mute
/  - Slide Up
\  - Slide Down
b  - Bend Up OR Down
// - Tremolo Picking

I used this to work out this tab.....
http://www.youtube.com/watch?v=6iBH5mxIpLw

Intro/Chorus
Corey
e|------------------------------------|
B|------------------------------------|
G|------------------------------------|
D|--10~-9-10~-9-10~-9----9-10---------|
A|--------------------12------12-10---|
D|------------------------------------|
						
Matt
e|--0-0-0-00----------------------------------|
B|--1-1-1-11---5-5-5-55--6-6-6-66--8888-5555--|  /    I am not too
G|--2-2-2-22---4-4-4-44--5-5-5-55--7777-4444--| /---- sure about the
D|--2-2-2-22---2-2-2-22--3-3-3-33--5555-2222--| \---- strumming pattern
A|--0-0-0-00---2-2-2-22--3-3-3-33--5555-2222--|  \    here
D|-------------2-2-2-22--3-3-3-33--5555-2222--|


Verse
(Both Guitars)
e|--00--x------x------x----------|
B|--11--x--33--x--66--x--88-55---|
G|--22--x--22--x--55--x--77-44---|
D|--22--x--00--x--33--x--55-22---|<< Strum the x's randomly
A|--00--x--00--x--33--x--55-22---|
D|------x--00--x--33--x--55-22---|
        

Pre-Chorus
Corey
e|-------------------------------------------------------------------------|
B|-------------------------------------------------------------------------|
G|-9-9-9\7-7-7/12-12-9-9-9\7-7-7/12-12-9-9-9\7-7-7/12-12-9-9-9\7-7-7/12-12-|
D|-------------------------------------------------------------------------|
A|-------------------------------------------------------------------------|
D|-------------------------------------------------------------------------|

e|-----------------------------------------------------------------------|
B|-----------------------------------------------------------------------|
G|-----------------------------------------------------------------------|
D|10-10-10-9-9-9-----10-10-10-9-9-9------------------------------9-9-9-9-|
A|--------------10-10--------------10-10---9999-10101010-12121212--------|
D|-----------------------------------------------------------------------|

Matt
e|-0000000000000000------------------------------------------------------|
B|-1111111111111111-3333333333333333-6666666666666666-88888888-55555555--|
G|-2222222222222222-2222222222222222-5555555555555555-77777777-44444444--|
D|-2222222222222222-0000000000000000-3333333333333333-55555555-22222222--|
A|-0000000000000000-0000000000000000-3333333333333333-55555555-22222222--|
D|------------------0000000000000000-3333333333333333-55555555-22222222--|

Then play....

Intro/Chorus
Verse
Pre-Chorus
Intro/Chorus

Bridge
(Both Guitars)
e|--0--x-----x--------0--x-----x---------0--x-----x----------0--x-----x-----|
B|--1--x--5--x--6-----1--x--6--x--8------1--x--5--x--6-------1--x--6--x--8--|
G|--2--x--4--x--5-----2--x--5--x--7------2--x--4--x--5-------2--x--5--x--7--|
D|--2--x--2--x--3-----2--x--3--x--5------2--x--2--x--3-------2--x--3--x--5--|
A|--0--x--2--x--3-----0--x--3--x--5------0--x--2--x--3-------0--x--3--x--5--|
D|-----x--2--x--3--------x--3--x--5---------x--2--x--3----------x--3--x--5--|


SOLO!!!
Corey
e|--------------------------------------------------|
B|--------------------------------------------------|
G|-14\9-9/12-12\7-7/9-9\5-4~--4b5b4-0-4-5/7-5-7-9~--|
D|--------------------------------------------------|
A|--------------------------------------------------|
E|--------------------------------------------------|
				  
e|-------------------------------//-//-//-----------------------------|
B|--------13-12~-------17-15~-13-12-13-12--------------------12-13-15-|
G|--14-12--------14-12--------------------12--------14-12-14----------|
D|-------------------------------------------12~~---------------------|
A|--------------------------------------------------------------------|
E|--------------------------------------------------------------------|

e|---------------------------------------------------------------------|
B|---------------------------------------------------------------------|
G|-9p5---5-9p5-9p5---5-9--7p4---4-7p4-7p4---4-7--5p2---2-5p2-5p2---2-5-|
D|-----7-----------7----------5-----------5----------3-----------3-----|
A|---------------------------------------------------------------------|
E|---------------------------------------------------------------------|

e|-----------------------------------------|
B|-----------------------------------------|
G|--10-9-7----9-7-----7--------------------|
D|---------10----10-9---10-9-7-10-9-7------|
A|------------------------------------10---|
E|-----------------------------------------|

Matt
(solo backing)
e|------------------------------------------------------|
B|--------0-1-------------------------------------------|
G|------2-----------------------------------------------|
D|----2-----------3-5---------3-5-7------9---10---9-----| x2
A|--0-----------2-----2-----3----------7---7------------|
E|------------2-----------3----------5----------5---5---|

e|----0---0---0---0------------------------------------------------------|
B|----1---1---1---1----5---5---5---5----6---6---6---6----8---8----5---5--|
G|----2---2---2---2----4---4---4---4----5---5---5---5----7---7----4---4--|
D|--2-2-2-2-2-2-2-2----2---2---2---2----3---3---3---3----5---5----2---2--| x2
A|--0---0---0---0----2-2-2-2-2-2-2-2--3-3-3-3-3-3-3-3--5-5-5-5--2-2-2-2--|
E|-------------------2---2---2---2----3---3---3---3----5---5----2---2----|
PM  .   .   .   .    .   .   .   .    .   .   .   .    .   .    .   .

Then Play

Intro/Chorus

then.....

Corey
e|--------------------------------------------|
B|--------------------------------------------|
G|--------------------------------------------|
D|--12~-11-12~-11-12~-11----11-12-11----------|
A|-----------------------14----------14-12~---|
E|--------------------------------------------|

Matt
e|----------------------------------------------------|
B|-12-12-12-1212--7-7-7-77--8-8-8-88--10101010--7777--|
G|-11-11-11-1111--6-6-6-66--7-7-7-77---9-9-9-9--6666--|
D|--9--9--9--9-9--4-4-4-44--5-5-5-55---7-7-7-7--4444--|
A|--9--9--9--9-9--4-4-4-44--5-5-5-55---7-7-7-7--4444--|
E|--9--9--9--9-9--4-4-4-44--5-5-5-55---7-7-7-7--4444--|

End On
e|---0---|
B|---1---|
G|---2---|
D|---2---|
A|---0---|
E|-------|
Suggest correction
comments
print report bad tab
15 comments total. Showing first comments.
0 reply
ordinary_story 32 wrote on November 25 2006, 04:20 am

sweet........u r greattt....great job (5 stars)

0 reply
blue_nose9 41 wrote on November 25 2006, 06:31 am

Cheers mate for tabbing me this i owe you lol
Brilliant (5 stars) lol

0 reply
shugo449 530 wrote on November 25 2006, 09:44 am

good job5*

guest
You may want to rate the tab now too:
select rating
Please do not post tabs as comments. Select "correction" instead!