Oops, an error
Loading. Please wait.

Dying In Your Arms bass

version 1
version 1
by Trivium
8,798 views 12 this week
no commentswrite comment
1 2 3 4 5
x 4
add to favorites
×
Save as Personal and add changes to this tab that will be seen only by you. Learn more ›
×
You can save this tab as Personal to edit and correct it or add notes. All changes will be seen only by you. Learn more »
launch autoscroll
font size
0
reset
guitar tuner
backing track
0:00
0:00
edit
Autoscroll
slow
fast
+/-
esc
set tempo
stop
Author
Intro & chorus
00:00 – 00:15
G: ----------------------------------------------------------------|
D: ----------------------------------------------------------------|
A: ----------------------------------------------------------------|
D: 7-7-7-7-7-7-7-7-2-2-2-2-2-2-2-2-3-3-3-3-3-3-3-3-5-5-5-5-2-2-2-2-|

Verse
00:15-00:25
G: ----------------------------------------------------------------|
D: ----------------------------------------------------------------|
A: ----------------------------------------------------------------|
D: 0-0-0-0-0-0-0-0-0-0-0-0-0-0-0-0-2-2-2-2-2-2-2-2-2-2-2-2-2-2-2-2-|

G: ----------------------------------------------------------------|
D: ----------------------------------------------------------------|
A: ----------------------------------------------------------------|
D: 3-3-3-3-3-3-3-3-3-3-3-3-3-3-3-3-5-5-5-5-5-5-5-5-2-2-2-2-2-2-2-2-|

Pre-Chorus
00:25-00:38
G: ----------------------------------------------------------------|
D: ----------------------------------------------------------------|
A: ----------------------------------------------------------------|
D: 7-7-7-7-7-7-7-7-7-7-7-7-7-7-7-7-0-0-0-0-0-0-0-0-0-0-0-0-0-0-0-0-|

G: ----------------------------------------------------------------|
D: ----------------------------------------------------------------|
A: ----------------------------------------------------------------|
D: 3-3-3-3-3-3-3-3-3-3-3-3-3-3-3-3-5-5-5-5-5-5-5-5-2-2-2-2-2-2-2-2-|

Chorus x 2
00:38-00:50
G: ----------------------------------------------------------------|
D: ----------------------------------------------------------------|
A: ----------------------------------------------------------------|
D: 7-7-7-7-7-7-7-7-2-2-2-2-2-2-2-2-3-3-3-3-3-3-3-3-5-5-5-5-2-2-2-2-|

Verse
00:50-01:02
G: ----------------------------------------------------------------|
D: ----------------------------------------------------------------|
A: ----------------------------------------------------------------|
D: 0-0-0-0-0-0-0-0-0-0-0-0-0-0-0-0-2-2-2-2-2-2-2-2-2-2-2-2-2-2-2-2-|

G: ----------------------------------------------------------------|
D: ----------------------------------------------------------------|
A: ----------------------------------------------------------------|
D: 3-3-3-3-3-3-3-3-3-3-3-3-3-3-3-3-5-5-5-5-5-5-5-5-2-2-2-2-2-2-2-2-|

Pre-Chorus
01:02-01:15
G: ----------------------------------------------------------------|
D: ----------------------------------------------------------------|
A: ----------------------------------------------------------------|
D: 7-7-7-7-7-7-7-7-7-7-7-7-7-7-7-7-0-0-0-0-0-0-0-0-0-0-0-0-0-0-0-0-|

G: ----------------------------------------------------------------|
D: ----------------------------------------------------------------|
A: ----------------------------------------------------------------|
D: 3-3-3-3-3-3-3-3-3-3-3-3-3-3-3-3-5-5-5-5-5-5-5-5-2-2-2-2-2-2-2-2-|

Chorus x 4
01:15-01:38
G: ----------------------------------------------------------------|
D: ----------------------------------------------------------------|
A: ----------------------------------------------------------------|
D: 7-7-7-7-7-7-7-7-2-2-2-2-2-2-2-2-3-3-3-3-3-3-3-3-5-5-5-5-2-2-2-2-|

Breakdown
01:38-01:50
G: ---------------------------------------------------------------|
D: ---------------------------------------------------------------|
A: ---------------------------------------------------------------|
D: 7-0-2-0-3----7-0-3-0-5----7-0-2-0-3----7-0-3-0-5---------------|

Solo (Intro Riff) x 4
01:50-02:14
G: ----------------------------------------------------------------|
D: ----------------------------------------------------------------|
A: ----------------------------------------------------------------|
D: 7-7-7-7-7-7-7-7-2-2-2-2-2-2-2-2-3-3-3-3-3-3-3-3-5-5-5-5-2-2-2-2-|

Verse (Outro of Solo)
Listening will solve all timing issues
02:14-02:49
G: ---------------------------------------------------------------|
D: ---------------------------------------------------------------|
A: ---------------------------------------------------------------|
D: 7-7----2-2-----2-3-3-3-3-3-3-3-3-5-5-5-5-2-2-2-2---------------|

G: ----------------------------------------------------------------|
D: ----------------------------------------------------------------|
A: ----------------------------------------------------------------|
D: 7-7-7-7-7-7-7-7-2-2-2-2-2-2-2-2-3-3-3-3-3-3-3-3-5-5-5-5-2-2-2-2-|

Verse "2" x 4 (All notes raised 2 frets)
G: ----------------------------------------------------------------|
D: ----------------------------------------------------------------|
A: ----------------------------------------------------------------|
D: 9-9-9-9-9-9-9-9-4-4-4-4-4-4-4-4-5-5-5-5-5-5-5-5-7-7-7-7-4-4-4-4-|

End Breakdown
02:49-END
G: ---------------------------------------------------------------|
D: ---------------------------------------------------------------|
A: ---------------------------------------------------------------|
D: 0-10-9-0-4-5-0-7-----------------------------------------------|
Suggest correction
Creating personal tab
Creating personal tab
You can edit any tab online and save it as your Personal.

You can edit, replace or remove any tab part or add personal notes – all changes will be seen only by you.

Personal tabs can be accessed anytime from any device, even offline.
Learn more »
comments
print report bad tab
guest
You may want to rate the tab now too:
select rating
Wanna post a correction for this tab? Suggest correction