Oops, an error
Loading. Please wait.

Dying In Your Arms Tab

version 1
37,996 views 15 this week
29 commentsread comments
1 2 3 4 5
accurate
x 25
add to favorites
launch autoscroll
font size
0
reset
how to read this tab
guitar tuner
Autoscroll
slow
fast
+/-
esc
set tempo
stop
Help us to improve Ultimate-Guitar.com Take our survey!
×
Contributor
Difficulty
Tuning
dagget 1,522
intermediate
D A D G B E
Updated, along with the harmony. Good song, ill b missing the old trivium souind, as it 
that now trivium, in concert, sings to all their old 'screaming' songs. Cant wait for 
crusade though. Enjoy!


Trivium - Dying in Your Arms - Cd - Ascendancy

Solo 1

  Guitar 1
E|----------------------------------------------------------------------8-----|
B|-13\10-10-10-10/12-12-12\8-8-8/10-10\5-5-3~-----------------------------8---|
G|-----------------------------------------------4~-4h5h7-7-9-9~-----7h9------|
D|----------------------------------------------------------------------------|
A|----------------------------------------------------------------------------|
D|----------------------------------------------------------------------------|


  Guitar 1
E|--12-10~----------15-13-12----12--------------------------------------------|
B|------------13-------------15----15-12----------------121315----------------|
G|---------------12----------------------12~-----141214-----------------------|
D|----------------------------------------------------------------------------|
A|----------------------------------------------------------------------------|
D|----------------------------------------------------------------------------|

Solo 2

  Guitar 1
E|--12p8----8h12p8h12p8----8h12p8h12p8----8---------10p7---7h10p7h10p7---7h10p-|
B|-------10-------------10-------------10----------------8-------------8-------|
G|-----------------------------------------------------------------------------|
D|-----------------------------------------------------------------------------|
A|-----------------------------------------------------------------------------|
D|-----------------------------------------------------------------------------|


  Guitar 2 (harmony)
E|-----------------------------------------------------------------------------|
B|-----------------------------------------------------------------------------|
G|--9p5---5h9p5h9p5---5h9p5h9p5---5--------7p4---4h7p4h7p4--4h7p4h7p4---4------|
D|------7-----------7-----------7--------------5-----------5----------5--------|
A|-----------------------------------------------------------------------------|
D|-----------------------------------------------------------------------------|


  Guitar 1
E|--7h10p7---7----------5h8p5---5h8p5h8p5---5h8p5h8p5---5--------|
B|---------8------------------6-----------6-----------6----------|
G|---------------------------------------------------------------|
D|---------------------------------------------------------------|
A|---------------------------------------------------------------|
D|---------------------------------------------------------------|


  Guitar 2 (harmony)
E|--------------------------------------|
B|--------------------------------------|
G|--2h5p2---2h5p2h5p2---2h5p2h5p2--2----|
D|--------3-----------3-----------3-----|
A|--------------------------------------|
D|--------------------------------------|


  Guitar 1
E|-13-12-10---12-10-------10-----------------=----------|
B|----------13------13-12----13-12-10-13-12-10----------|
G|---------------------------------------------12-------|
D|------------------------------------------------------|
A|------------------------------------------------------|
D|------------------------------------------------------|


  Guitar 2 (harmony)
E|------------------------------------------------------|
B|------------------------------------------------------|
G|---10-9-7----9-7------7-------------------------------|
D|----------10-----10-9---10-9-7-10-9-7-----------------|
A|------------------------------------------------------|
D|------------------------------------------------------|

The harmony part should sound about right.

\=slide
~=vibrato
h=hammer on
p=pull off

Part one of Solo    X1
Part two of Solo    X2
comments
print report bad tab
29 comments total. Showing first comments.
0 reply
Mr.Jack_SG 187 wrote on October 28 2005, 01:13 pm

dude thank so much for tabbin this out. ive been lookin for this solo for ages. im gonna try it out now.

0 reply
TommyBoy003 18 wrote on February 13 2006, 11:09 am

Fairly decent. Two poins tho: most of it is harmonised & the end bit should be something like this:

G|---------------------------------------------------------------------
D|-14p10--1014p1014p10--1014p1014p10--10-12p9--912p912p9--910p910p9--9-
A|------12------------12------------12-------10---------10---------10--
D|---------------------------------------------------------------------

g|--------------------------10p9p7--9p7---7---------------
D|-10p7-710p710p7-79p79p7-7-------10---109-10p9p710p9p7---
A|-----8---------8-------8-----------------------------10-
D|--------------------------------------------------------

X 2

+1 reply
killswitch_mike 1,111 wrote on March 4 2006, 03:52 pm

dude , in your legend why have you called p a power off? its called a pull off

I want to post or [tab]
guest
You may want to rate the tab now too:
select rating
Please do not post tabs as comments. Select "correction" instead!