Oops, an error
Loading. Please wait.

Dying In Your Arms Tab

version 2
11,994 views 9 this week
no commentswrite comment
1 2 3 4 5
accurate
x 4
add to favorites
launch autoscroll
font size
0
reset
how to read this tab
guitar tuner
Autoscroll
slow
fast
+/-
esc
set tempo
stop
Help us to improve Ultimate-Guitar.com Take our survey!
×
Author
Difficulty
Tuning
novice
D A D G B E
Tabbed by:matty halliday
Email:mattyhalliday@hotmail.co.uk

Tuning:drop d      
   
 only guitar 1 sorry
    


e|-------------------------------------------------------------------------|
B|-13-10-12-8-6-5-6-8--------------13-10-12-15-13-12-13-17-15-12-12h13p12--|
G|--------------------4v-4h5-5h7-9---------------------------------------12|
D|-------------------------------------------------------------------------|
A|-------------------------------------------------------------------------|
E|-------------------------------------------------------------------------|

e|-------------------------------------------------------------------------|
B|-------------12-13-------------------------------------------------------|
G|-------12-14-------------------------------------------------------------|
D|-12-14-------------------------------------------------------------------|
A|-------------------------------------------------------------------------|
E|-------------------------------------------------------------------------|

e|-12p8--8-12p812p8---8-12p812p8--8--10p7-7-10p710p7-7--8p78p7-7-----------|
B|-----10-----------10------------10-------8-----------8------8------------|
G|-------------------------------------------------------------------------|
D|-------------------------------------------------------------------------|
A|-------------------------------------------------------------------------|
E|-------------------------------------------------------------------------|

e|-8p5-5-8p58p5-5-6p56p5-5--13-12-10-8-12-10-8---10-8-----8----------------|
B|----6--------6--------6----------------------12----12-10-12-10-8---------|
G|-------------------------------------------------------------------------|
D|-------------------------------------------------------------------------|
A|-------------------------------------------------------------------------|
E|-------------------------------------------------------------------------|



Suggest correction
comments
print report bad tab
guest
You may want to rate the tab now too:
select rating
Please do not post tabs as comments. Select "correction" instead!