Oops, an error
Loading. Please wait.

Dying In Your Arms Tab

version 2
7,335 views 9 this week
1 commentread comment
1 2 3 4 5
accurate
x 4
add to favorites
launch autoscroll
font size
0
reset
how to read this tab
guitar tuner
Autoscroll
slow
fast
+/-
esc
set tempo
stop
Help us to improve Ultimate-Guitar.com Take our survey!
×
Contributor
Difficulty
Tuning
intermediate
D A D G B E
TRIVIUM – DYING IN YOUR ARMS
ASCENDANCY

E, B, G, D, A, D

Intro/Chorus:
|---------------------15--------------------------------------------|
|-13------12--13----------13----------12------12--13--12------------|
|o----------------------------------------14--------------14--12----|
|o------------------------------------------------------------------|
|-------------------------------------------------------------------|
|-------------------------------------------------------------------|
|
|
|-------------------------------------------------------------------|
|-------------------------------------------------------------------|
|o------------------------------------------------------------------|
|o-7---7---7---7---7---7---7-------2---2---2---2---2---2---2---2----|
|--7---7---7---7---7---7---7-------2---2---2---2---2---2---2---2----|
|--7---7---7---7---7---7---7-------2---2---2---2---2---2---2---2----|


|-------------------------------------------------------------------|
|-13------12--13------12--13----------12------12--13--12------------|
|-----------------------------------------14--------------14--12---o|
|------------------------------------------------------------------o|
|-------------------------------------------------------------------|
|-------------------------------------------------------------------|
|
|
|-------------------------------------------------------------------|
|-------------------------------------------------------------------|
|------------------------------------------------------------------o|
|--3---3---3---3---3---3---3-------5---5---5---5---2---2---2---2---o|
|--3---3---3---3---3---3---3-------5---5---5---5---2---2---2---2----|
|--3---3---3---3---3---3---3-------5---5---5---5---2---2---2---2----|

Verse:
PM------------------------------------|
|-------------------------------------------------------------------|
|-------------------------------------------------------------------|
|-------------------------------------------------------------------|
|--7-7-----------------------------2-2------------------------------|
|--7-7-----------------------------2-2------------------------------|
|--7-7-----------------------------2-2------------------------------|

  |---------------------------------------------------|
|-------------------------------------------------------------------|
|-------------------------------------------------------------------|
|-------------------------------------------------------------------|
|--3-3-----------------------------5-5-------------2-2--------------|
|--3-3-----------------------------5-5-------------2-2--------------|
|--3-3-----------------------------5-5-------------2-2--------------|

Pre-chorus:
|-------------------------------------------------------------------|
|-------------------------------------------------------------------|
|--9-9-9-7-7-71212-9-9-9-7-7-71212-9-9-9-7-7-71212-9-9-9-7-7-71212--|
|--x-x-x-x-x-x-x-x-x-x-x-x-x-x-x-x-x-x-x-x-x-x-x-x-x-x-x-x-x-x-x-x--|
|--7-7-7-5-5-51010-7-7-7-5-5-51010-7-7-7-5-5-51010-7-7-7-5-5-51010--|
|-------------------------------------------------------------------|
|
|
|-------------------------------------------------------------------|
|-------------------------------------------------------------------|
|-------------------------------------------------------------------|
|--7-7-7-7-7-7-7-7-7-7-7-7-7-7-7-7-0-0-0-0-0-0-0-0-0-0-0-0-0-0-0-0--|
|--7-7-7-7-7-7-7-7-7-7-7-7-7-7-7-7-0-0-0-0-0-0-0-0-0-0-0-0-0-0-0-0--|
|--7-7-7-7-7-7-7-7-7-7-7-7-7-7-7-7-0-0-0-0-0-0-0-0-0-0-0-0-0-0-0-0--|


|-------------------------------------------------------------------|
|-------------------------------------------------------------------|
|-101010-9-9-9-5-5101010-9-9-9-5-5101010-9-9-9-5-5101010-9-9-9-5-5--|
|--x-x-x-x-x-x-x-x-x-x-x-x-x-x-x-x-x-x-x-x-x-x-x-x-x-x-x-x-x-x-x-x--|
|--8-8-8-7-7-7-3-3-8-8-8-7-7-7-3-3-8-8-8-7-7-7-3-3-8-8-8-7-7-7-3-3--|
|-------------------------------------------------------------------|
|
|
|-------------------------------------------------------------------|
|-------------------------------------------------------------------|
|-------------------------------------------------------------------|
|--3-3-3-3-3-3-3-3-3-3-3-3-3-3-3-3-5-5-5-5-5-5-5-5-2-2-2-2-2-2-2-2--|
|--3-3-3-3-3-3-3-3-3-3-3-3-3-3-3-3-5-5-5-5-5-5-5-5-2-2-2-2-2-2-2-2--|
|--3-3-3-3-3-3-3-3-3-3-3-3-3-3-3-3-5-5-5-5-5-5-5-5-2-2-2-2-2-2-2-2--|

Intro/Chorus:
|---------------------15--------------------------------------------|
|-13------12--13----------13----------12------12--13--12------------|
|o----------------------------------------14--------------14--12----|
|o------------------------------------------------------------------|
|-------------------------------------------------------------------|
|-------------------------------------------------------------------|
|
|
|-------------------------------------------------------------------|
|-------------------------------------------------------------------|
|o------------------------------------------------------------------|
|o-7---7---7---7---7---7---7-------2---2---2---2---2---2---2---2----|
|--7---7---7---7---7---7---7-------2---2---2---2---2---2---2---2----|
|--7---7---7---7---7---7---7-------2---2---2---2---2---2---2---2----|


|-------------------------------------------------------------------|
|-13------12--13------12--13----------12------12--13--12------------|
|-----------------------------------------14--------------14--12---o|
|------------------------------------------------------------------o|
|-------------------------------------------------------------------|
|-------------------------------------------------------------------|
|
|
|-------------------------------------------------------------------|
|-------------------------------------------------------------------|
|------------------------------------------------------------------o|
|--3---3---3---3---3---3---3-------5---5---5---5---2---2---2---2---o|
|--3---3---3---3---3---3---3-------5---5---5---5---2---2---2---2----|
|--3---3---3---3---3---3---3-------5---5---5---5---2---2---2---2----|

Verse:
PM------------------------------------|
|-------------------------------------------------------------------|
|-------------------------------------------------------------------|
|-------------------------------------------------------------------|
|--7-7-----------------------------2-2------------------------------|
|--7-7-----------------------------2-2------------------------------|
|--7-7-----------------------------2-2------------------------------|

  |---------------------------------------------------|
|-------------------------------------------------------------------|
|-------------------------------------------------------------------|
|-------------------------------------------------------------------|
|--3-3-----------------------------5-5-------------2-2--------------|
|--3-3-----------------------------5-5-------------2-2--------------|
|--3-3-----------------------------5-5-------------2-2--------------|

Pre-chorus:
|-------------------------------------------------------------------|
|-------------------------------------------------------------------|
|--9-9-9-7-7-71212-9-9-9-7-7-71212-9-9-9-7-7-71212-9-9-9-7-7-71212--|
|--x-x-x-x-x-x-x-x-x-x-x-x-x-x-x-x-x-x-x-x-x-x-x-x-x-x-x-x-x-x-x-x--|
|--7-7-7-5-5-51010-7-7-7-5-5-51010-7-7-7-5-5-51010-7-7-7-5-5-51010--|
|-------------------------------------------------------------------|
|
|
|-------------------------------------------------------------------|
|-------------------------------------------------------------------|
|-------------------------------------------------------------------|
|--7-7-7-7-7-7-7-7-7-7-7-7-7-7-7-7-0-0-0-0-0-0-0-0-0-0-0-0-0-0-0-0--|
|--7-7-7-7-7-7-7-7-7-7-7-7-7-7-7-7-0-0-0-0-0-0-0-0-0-0-0-0-0-0-0-0--|
|--7-7-7-7-7-7-7-7-7-7-7-7-7-7-7-7-0-0-0-0-0-0-0-0-0-0-0-0-0-0-0-0--|


|-------------------------------------------------------------------|
|-------------------------------------------------------------------|
|-101010-9-9-9-5-5101010-9-9-9-5-5101010-9-9-9-5-5101010-9-9-9-5-5--|
|--x-x-x-x-x-x-x-x-x-x-x-x-x-x-x-x-x-x-x-x-x-x-x-x-x-x-x-x-x-x-x-x--|
|--8-8-8-7-7-7-3-3-8-8-8-7-7-7-3-3-8-8-8-7-7-7-3-3-8-8-8-7-7-7-3-3--|
|-------------------------------------------------------------------|
|
|
|-------------------------------------------------------------------|
|-------------------------------------------------------------------|
|-------------------------------------------------------------------|
|--3-3-3-3-3-3-3-3-3-3-3-3-3-3-3-3-5-5-5-5-5-5-5-5-2-2-2-2-2-2-2-2--|
|--3-3-3-3-3-3-3-3-3-3-3-3-3-3-3-3-5-5-5-5-5-5-5-5-2-2-2-2-2-2-2-2--|
|--3-3-3-3-3-3-3-3-3-3-3-3-3-3-3-3-5-5-5-5-5-5-5-5-2-2-2-2-2-2-2-2--|

Intro/Chorus:
|---------------------15--------------------------------------------|
|-13------12--13----------13----------12------12--13--12------------|
|o----------------------------------------14--------------14--12----|
|o------------------------------------------------------------------|
|-------------------------------------------------------------------|
|-------------------------------------------------------------------|
|
|
|-------------------------------------------------------------------|
|-------------------------------------------------------------------|
|o------------------------------------------------------------------|
|o-7---7---7---7---7---7---7-------2---2---2---2---2---2---2---2----|
|--7---7---7---7---7---7---7-------2---2---2---2---2---2---2---2----|
|--7---7---7---7---7---7---7-------2---2---2---2---2---2---2---2----|

                                                            (Play 4x)
|-------------------------------------------------------------------|
|-13------12--13------12--13----------12------12--13--12------------|
|-----------------------------------------14--------------14--12---o|
|------------------------------------------------------------------o|
|-------------------------------------------------------------------|
|-------------------------------------------------------------------|
|
|                                                           (Play 4x)
|-------------------------------------------------------------------|
|-------------------------------------------------------------------|
|------------------------------------------------------------------o|
|--3---3---3---3---3---3---3-------5---5---5---5---2---2---2---2---o|
|--3---3---3---3---3---3---3-------5---5---5---5---2---2---2---2----|
|--3---3---3---3---3---3---3-------5---5---5---5---2---2---2---2----|

Bridge:
PM    |-|   |-|                       |-|   |-|
|-------------------------------------------------------------------|
|-------------------------------------------------------------------|
|o-----------------------------------------------------------------o|
|o-7~~---2~~---3~~~~~~~~~~~~~~~~~~-7~~---3~~---5~~~~~~~~~~~~~~~~~~-o|
|--7~~-0-2~~-0-3~~~~~~~~~~~~~~~~~~-7~~-0-3~~-0-5~~~~~~~~~~~~~~~~~~--|
|--7~~-0-2~~-0-3~~~~~~~~~~~~~~~~~~-7~~-0-3~~-0-5~~~~~~~~~~~~~~~~~~--|

Solo:
PM----|           |---|           |---|           |---| |-|   |-|
|-------------------------------------------------------------------|
|-------------------------------------------------------------------|
|o----1012~~14~~~~-----7-9~~-5~~~~-----910~~12~~~~----12--1412--10-o|
|o-----x-x---x---------x-x---x---------x-x---x---------x---x-x---x-o|
|--0-0-810~~12~~~~-0-0-5-7~~-3~~~~-0-0-7-8~~10~~~~-0-010-01210-0-8--|
|--0-0-------------0-0-------------0-0-------------0-0---0-----0----|

Chorus:
PM--------------------------------------|
|-------------------------------------------------------------------|
|-------------------------------------------------------------------|
|-------------------------------------------------------------------|
|--7---7---------------------------2---2----------------------------|
|--7---7---------------------------2---2----------------------------|
|--7---7---------------------------2---2----------------------------|


|-------------------------------------------------------------------|
|-13------12--13------12--13----------12------12--13--12------------|
|-----------------------------------------14--------------14--12----|
|-------------------------------------------------------------------|
|-------------------------------------------------------------------|
|-------------------------------------------------------------------|
|
|
|-------------------------------------------------------------------|
|-------------------------------------------------------------------|
|-------------------------------------------------------------------|
|--3---3---3---3---3---3---3-------5---5---5---5---2---2---2---2----|
|--3---3---3---3---3---3---3-------5---5---5---5---2---2---2---2----|
|--3---3---3---3---3---3---3-------5---5---5---5---2---2---2---2----|


|---------------------15--------------------------------------------|
|-13------12--13----------13----------12------12--13--12------------|
|-----------------------------------------14--------------14--12----|
|-------------------------------------------------------------------|
|-------------------------------------------------------------------|
|-------------------------------------------------------------------|
|
|
|-------------------------------------------------------------------|
|-------------------------------------------------------------------|
|-------------------------------------------------------------------|
|--7---7---7---7---7---7---7-------2---2---2---2---2---2---2---2----|
|--7---7---7---7---7---7---7-------2---2---2---2---2---2---2---2----|
|--7---7---7---7---7---7---7-------2---2---2---2---2---2---2---2----|


|-------------------------------------------------------------------|
|-13------12--13------12--13----------12------12--13--12------------|
|-----------------------------------------14--------------14--12----|
|-------------------------------------------------------------------|
|-------------------------------------------------------------------|
|-------------------------------------------------------------------|
|
|
|-------------------------------------------------------------------|
|-------------------------------------------------------------------|
|-------------------------------------------------------------------|
|--3---3---3---3---3---3---3-------5---5---5---5---2---2---2---2----|
|--3---3---3---3---3---3---3-------5---5---5---5---2---2---2---2----|
|--3---3---3---3---3---3---3-------5---5---5---5---2---2---2---2----|


|---------------------17--------------------------------------------|
|-15------14--15----------15----------14------14--17--14------------|
|o----------------------------------------16--------------16--14----|
|o------------------------------------------------------------------|
|-------------------------------------------------------------------|
|-------------------------------------------------------------------|
|
|
|-------------------------------------------------------------------|
|-------------------------------------------------------------------|
|o------------------------------------------------------------------|
|o-9---9---9---9---9---9---9-------4---4---4---4---4---4---4---4----|
|--9---9---9---9---9---9---9-------4---4---4---4---4---4---4---4----|
|--9---9---9---9---9---9---9-------4---4---4---4---4---4---4---4----|

                                                            (Play 4x)
|-------------------------------------------------------------------|
|-15------14--15------14--15----------14------14--15--14------------|
|-----------------------------------------16--------------16--14---o|
|------------------------------------------------------------------o|
|-------------------------------------------------------------------|
|-------------------------------------------------------------------|
|
|                                                           (Play 4x)
|-------------------------------------------------------------------|
|-------------------------------------------------------------------|
|------------------------------------------------------------------o|
|--5---5---5---5---5---5---5-------7---7---7---7---4---4---4---4---o|
|--5---5---5---5---5---5---5-------7---7---7---7---4---4---4---4----|
|--5---5---5---5---5---5---5-------7---7---7---7---4---4---4---4----|

Haven’t got the exact end riff yet but I’m workin’ on it.
PT x
comments
print report bad tab
1 comment total.
0 reply
Gordon123 27 wrote on July 4 2006, 06:03 pm

this is all accurate apart from the rhythm solo, decent tab

I want to post or [tab]
guest
You may want to rate the tab now too:
select rating
Please do not post tabs as comments. Select "correction" instead!