Oops, an error
Loading. Please wait.

Dying In Your Arms Tab

version 5
6,610 views 1 this week
5 commentsread comments
1 2 3 4 5
accurate
x 8
add to favorites
launch autoscroll
font size
0
reset
how to read this tab
guitar tuner
Tab Pro tools
  • play this tab
  • loop segment
  • change instrument
  • show fretboard
  • metronome
×
Best way to learn
"Dying In Your Arms"
Autoscroll
slow
fast
+/-
esc
set tempo
stop
Contributor
Difficulty
Tuning
novice
D A D G B E
Artist: Trivium
Song: Dying in Your Arms
Tuning: DADGBE


Riff 1
 Gtr 1
|------------15------------------------------------------------------------|
|-13--12-13-----13--12----12-13-12--------13--12-13--12-13--12----12-13-12-|
|----------------------14----------14-12-----------------------14----------|
|--------------------------------------------------------------------------|
|--------------------------------------------------------------------------|
|--------------------------------------------------------------------------|
|
|Gtr 2
|--------------------------------------------------------------------------|
|-------------8------------------------------------------------------------|
|--5---4--5------5---4-----4--5--4---------5---4--5---4--5---4-----4--5--4-|
|-----------------------7-----------7--5------------------------7----------|
|--------------------------------------------------------------------------|
|--------------------------------------------------------------------------|
|
|Gtr 3
|--------------------------------------------------------------------------|
|--------------------------------------------------------------------------|
|--------------------------------------------------------------------------|
|--7-7-7-7-7-7-7-7---2-2-2-2-2-2-2-2-2-2---3-3-3-3-3-3-3-3---5-5-5-5--2--2-|
|--7-7-7-7-7-7-7-7---2-2-2-2-2-2-2-2-2-2---3-3-3-3-3-3-3-3---5-5-5-5--2--2-|
|--7-7-7-7-7-7-7-7---2-2-2-2-2-2-2-2-2-2---3-3-3-3-3-3-3-3---5-5-5-5--2--2-|

 Gtr 1
|--------|
|--------|
|-14-12--|
|--------|
|--------|
|--------|
|
|Gtr 2
|--------|
|--------|
|--------|
|--7--5--|
|--------|
|--------|
|
|Gtr 3
|--------|
|--------|
|--------|
|--2--2--|
|--2--2--|
|--2--2--|

Riff 2
|---------------------------------------------------------------|
|---------------------------------------------------------------|
|---------------------------------------------------------------|
|--7-7------------0-0------------3-3------------5-5--------2-2--|
|--7-7------------0-0------------3-3------------5-5--------2-2--|
|--7-7------------0-0------------3-3------------5-5--------2-2--|
PM . .            . .            . .            . .        . .

Riff 3
 Gtr 1
|------------------------------------------------------------------|
|------------------------------------------------------------------|
|--9-9-9-7-7-12-12-9-9-9-7-7-12-12-9-9-9-7-7-12-12-9-9-9-7-7-12-12-|
|--x-x-x-x-x--x--x-x-x-x-x-x--x--x-x-x-x-x-x--x--x-x-x-x-x-x--x--x-|
|--7-7-7-5-5-10-10-7-7-7-5-5-10-10-7-7-7-5-5-10-10-7-7-7-5-5-10-10-|
|------------------------------------------------------------------|
|
|Gtr 2
|------------------------------------------------------------------|
|------------------------------------------------------------------|
|------------------------------------------------------------------|
|--7-7-7-7-7--7--7-7-7-7-7-7--7--7-0-0-0-0-0--0--0-0-0-0-0-0--0--0-|
|--7-7-7-7-7--7--7-7-7-7-7-7--7--7-0-0-0-0-0--0--0-0-0-0-0-0--0--0-|
|--7-7-7-7-7--7--7-7-7-7-7-7--7--7-0-0-0-0-0--0--0-0-0-0-0-0--0--0-|

 Gtr 1
|-----------------------------------------------------------------------|
|-----------------------------------------------------------------------|
|--10-10-10-7-7-5-5-10-10-10-7-7-5-5---7-7-7--5-5--3-3--5-5--3--5--7-5--|
|---x--x--x-x-x-x-x--x--x--x-x-x-x-x---x-x-x--x-x--x-x--x-x--x--x--x-x--|
|---8--8--8-5-5-3-3--8--8--8-5-5-3-3---5-5-5--3-3--1-1--3-3--1--3--5-3--|
|-----------------------------------------------------------------------|
|
|Gtr 2
|-----------------------------------------------------------------------|
|-----------------------------------------------------------------------|
|-----------------------------------------------------------------------|
|---3--3--3-3-3-3-3--3--3--3-3-3-3-3---5-5-5--5-5--5-5--5-5--5--5--5-5--|
|---3--3--3-3-3-3-3--3--3--3-3-3-3-3---5-5-5--5-5--5-5--5-5--5--5--5-5--|
|---3--3--3-3-3-3-3--3--3--3-3-3-3-3---5-5-5--5-5--5-5--5-5--5--5--5-5--|

Riff 4
|-----------------------------------|
|-----------------------------------|
|-----------------------------------|
|--7---0-2--0-3-------7---0-2--0-5--|
|--7---0-2--0-3-------7---0-2--0-5--|
|--7---0-2--0-3-------7---0-2--0-5--|
PM     .    .             .    .

Guitar Solo
|---------------------------------------------------------------|
|--13\10-10-10/12-12-12\8-8-8/10-10-10\5-5-5-3------------------|
|------------------------------------------------4h5h7--7--9-9--|
|---------------------------------------------------------------|
|---------------------------------------------------------------|
|---------------------------------------------------------------|

|----------8--------------12-----|
|------------8---------------10--|
|--7h9--7---------7h9--7---------|
|--------------------------------|
|--------------------------------|
|--------------------------------|

|--12p8----8h12p8h12p8----8h12p8h12p8----8---10p7---7h10p7h10p7----|
|-------10-------------10-------------10----------8-------------8--|
|------------------------------------------------------------------|
|------------------------------------------------------------------|
|------------------------------------------------------------------|
|------------------------------------------------------------------|

|--7h10p7h10h7---7---8p5---5h8p5h8p5---5h8p5h8p5---5---13p12p10---12p10------|
|--------------8---------6-----------6-----------6-------------12------13p12-|
|----------------------------------------------------------------------------|
|----------------------------------------------------------------------------|
|----------------------------------------------------------------------------|
|----------------------------------------------------------------------------|

|--10-----------------------12p8----8h12p8h12p8----8h12p8h12p8----8--|
|-----13p12p10-13p12p10----------10-------------10-------------10----|
|----------------------12--------------------------------------------|
|--------------------------------------------------------------------|
|--------------------------------------------------------------------|
|--------------------------------------------------------------------|

|--10p7---7h10p7h10p7---7h10p7h10p7---7---8p5---5h8p5h8p5---5h8p5h8p5---5--|
|-------8-------------8-------------8---------6-----------6-----------6----|
|--------------------------------------------------------------------------|
|--------------------------------------------------------------------------|
|--------------------------------------------------------------------------|
|--------------------------------------------------------------------------|

|--13p12p10---12p10------10---------------------|
|----------12------13p12---13p12p10-13p12p10----|
|-------------------------------------------12--|
|-----------------------------------------------|
|-----------------------------------------------|
|-----------------------------------------------|

Riff 5
|-------------------------|
|-------------------------|
|-------------------------|
|--7--------------0-------|
|--7--------------0-------|
|--7--------------0-------|

Riff 6
 Gtr 1
|-----------------------------------------|
|-13--12-13--12-13--12----12-13-12--------|
|----------------------14----------14-12--|
|-----------------------------------------|
|-----------------------------------------|
|-----------------------------------------|
|
|Gtr 2
|-----------------------------------------|
|-----------------------------------------|
|--5---4--5---4--5---4-----4--5--4--------|
|-----------------------7-----------7--5--|
|-----------------------------------------|
|-----------------------------------------|
|
|Gtr 3
|-----------------------------------------|
|-----------------------------------------|
|-----------------------------------------|
|--3-3-3-3-3-3-3-3---5-5-5-5--2--2--2--2--|
|--3-3-3-3-3-3-3-3---5-5-5-5--2--2--2--2--|
|--3-3-3-3-3-3-3-3---5-5-5-5--2--2--2--2--|

Riff 7
 Gtr 1
|------------17------------------------------------------------------------|
|-15--14-15-----15--14----14-15-14--------15--14-15--14-15--14----14-15-14-|
|----------------------16----------16-14-----------------------16----------|
|--------------------------------------------------------------------------|
|--------------------------------------------------------------------------|
|--------------------------------------------------------------------------|
|
|Gtr 2
|--------------------------------------------------------------------------|
|------------10------------------------------------------------------------|
|--7---6--7------7---6-----6--7--6---------7---6--7---6--7---6-----6--7--6-|
|-----------------------8-----------8--6------------------------8----------|
|--------------------------------------------------------------------------|
|--------------------------------------------------------------------------|
|
|Gtr 3
|--------------------------------------------------------------------------|
|--------------------------------------------------------------------------|
|--------------------------------------------------------------------------|
|--9-9-9-9-9-9-9-9---4-4-4-4-4-4-4-4-4-4---6-6-6-6-6-6-6-6---7-7-7-7--4--4-|
|--9-9-9-9-9-9-9-9---4-4-4-4-4-4-4-4-4-4---6-6-6-6-6-6-6-6---7-7-7-7--4--4-|
|--9-9-9-9-9-9-9-9---4-4-4-4-4-4-4-4-4-4---6-6-6-6-6-6-6-6---7-7-7-7--4--4-|

 Gtr 1
|--------|
|--------|
|--------|
|-16-14--|
|--------|
|--------|
|
|Gtr
|--------|
|--------|
|--------|
|--8--6--|
|--------|
|--------|
|
|Gtr 3
|--------|
|--------|
|--------|
|--4--4--|
|--4--4--|
|--4--4--|

Riff 8
|---------------------------|
|---------------------------|
|---------------------------|
|-7\5--0--5\3--0--2/3-5--0--|
|-7\5--0--5\3--0--2/3-5--0--|
|-7\5--0--5\3--0--2/3-5--0--|
PM     .       .         .


Song Order:

Riff 1 (2x)
Riff 2
Riff 3
Riff 1 (2x)
Riff 2
Riff 3
Riff 1 (4x)
Riff 4 (2x)
Guitar Solo
Riff 5
Riff 6
Riff 1
Riff 7 (4x)
Riff 8
comments
print report bad tab
5 comments total. Showing first comments.
0 reply
metalicatrivium wrote on February 24 2007, 04:48 pm

SHIT!! in riff 8 i didnt mean to put that last palm mute there. just ignore that.

0 reply
guitar_freak_20 wrote on April 17 2007, 12:40 pm

in the first riff, is only 2 7s, the rest are rests.

0 reply
666lucky13 wrote on April 27 2007, 12:56 am

trivium dont have 3 guitarists

I want to post or [tab]
guest
You may want to rate the tab now too:
select rating
Please do not post tabs as comments. Select "correction" instead!