Oops, an error
Loading. Please wait.

Ember To Inferno Tab

version 1
version 1

Whole song

Interactive

26,923 views 18 this week
13 commentsread comments
1 2 3 4 5
x 13
add to favorites
launch autoscroll
font size
0
reset
how to read this tab
guitar tuner
Autoscroll
slow
fast
+/-
esc
set tempo
stop
Help us to improve Ultimate-Guitar.com Take our survey!
×
Band- Trivium
Song- Ember To Inferno

----------------|
----------------|
----------------|
----------------|
-2-----22----22-|
-0-----00----00-|


------------------------------------------------------------|
------------------------------------------------------------|
------------------------------------------------------------|
------------------------------------------------------------|
----7---9-----7---9---10---9-----7---9-----12---10---9---10-|
-00---0---000---0---0----0----00---0---000----0----0---0----|


------------------------------------------------------------------------|
------------------------------------------------------------------------|
------------------------------------------------------------------------|
-----10-----12-----10-----12--------------------------------------------|
-----10-----10-----10-----10-----7---9----7---9----10---9-----9---10----|
-8888-8-8888-8-8888-8-8888-8--55---5---55---5---55----5----77---7---777-|


--------------|
--------------|
--------------|
--------------|
-10-10--12-12-|
--8--8--10-10-|


--------------------------------------------------------------|
--------------------------------------------------------------|
--------------------------------------------------------------|
---------5---4---2-2-----------------2--2--5---4--------------|
--2--2-----7---5-2-2-----9-7-10-9----2--2----7---5--22----22--|
--0--0-----------0-0-----------------0--0-----------00----00--|


---------------------------------------------|
---------------------------------------------|
-----------------5---9--11------7---11----12-|
-2-2---9-10------5---/---/------7----/----/--|
-2-2---/--/------3---7---9------5----9----10-|
-0-0---7--8------3--------------5------------|


--------------------------------|
--------------------------------|
--------------------------------|
-2-2--5---4---------------------|
-2-2----7---5--2--2---22-----22-|
-0-0-----------0--0---00-----00-|


---------------------------------------------|
---------------------------------------------|
--------------------------55555555-77777777--|
-12-12--1212--1010-9-9----55555555-77777777--|
--7--7---7-7--7-7--7-7----33333333-55555555--|
--0--0---0-0--0-0--0-0----33333333-55555555--|


-------------------------------------------------|
-------------------------------------------------|
--------------------------5-555555555-7777777777-|
-2-2----------22----------5-555555555-7777777777-|
-2-2--10-9----22--10-9----3-333333333-5555555555-|
-0-0----------00----------3-333333333-5555555555-|


-----------|--------------------------------------------|---------------------|
-----------|--------------------------------------------|---------------------|
-----------|--------------------------------------------|---------------------|
-----------|--------------------------------------------|-------------------7-|
-10p9p7h9--|------7--------3---2-------7--------3--10-9-|-------7---10p9p7h9--|
----------8|-0--7----0h3h5---0----0-/7----0-3h5---------|-0-/-7---0---------8-|


----------------------------|
----------------------------|
----------------------5---7-|
-10-12----2---5---7---5---7-|
-10-12----2---5---7---3---5-|
-8--10----0---3---5---------|


------------------------------------------------------|
-8p7------------------8p7------------10/121212-101010-|
-----9999999-7777777-------99999999-------------------|
------------------------------------------------------|
------------------------------------------------------|
------------------------------------------------------|


-12p10p8-12p10p8---------------------------------------------------|
------------------12p10p8-12p10p8----------------------------------|
-----------------------------------11p9p7-11p9p7-------------------|
-------------------------------------------------10p9p7--10p9p7----|
----------------------------------------------------------------7--|
-------------------------------------------------------------------|
Suggest correction
comments
print report bad tab
13 comments total. Showing first comments.
0 reply
Im_a_basketcase 10 Apr 15, 2006 08:17 AM

sweet TAB, its a great song. ***** mate

0 reply
ibanezeric82 103 Apr 27, 2006 08:53 PM

This part is missing one thing (the other harmonized part - which i added in here in parenthesis).
-------------------------------------------------|
-------------------------------------------------|
--------------------------5-555555555-7777777777-|
-2-2----------22--(9-7)---5-555555555-7777777777-|
-2-2--10-9----22--10-9----3-333333333-5555555555-|
-0-0----------00----------3-333333333-5555555555-|


OTHERWISE, PERFECT!!!

0 reply
3 days grace 60 Apr 28, 2006 11:02 AM

doesnt even show the tuning

guest
You may want to rate the tab now too:
select rating
Wanna post a correction for this tab? Suggest correction