Oops, an error
Loading. Please wait.

Ember To Inferno Tab

version 2
version 2

Whole song

Interactive

30,761 views 36 this week
7 commentsread comments
1 2 3 4 5
excellent!
x 16
add to favorites
launch autoscroll
font size
0
reset
how to read this tab
guitar tuner
Tab Pro tools
  • play this tab
  • loop segment
  • change instrument
  • show fretboard
  • metronome
×
Best way to learn
"Ember To Inferno"
Autoscroll
slow
fast
+/-
esc
set tempo
stop
Contributor
Artist: Trivium
Song: Ember to inferno
Album: Ember To Inferno
Tab by: Beberasmus bebe_4048@hotmail.com

Maybe I'm wrong with the 2nd guitar but I tried to tabbed it.
METAL RULESS !!!! |m/

Intro/Verse:
Gtr 1
       ...  ...
E|--------------|
B|--------------|
G|--------------|
D|-2---2-2--2-2-|
A|-2---2-2--2-2-|
E|-0---0-0--0-0-|
  ...    .   .....   .   .    .    ...   .   ....     .    .   .     ......   .....   .....  .....
E|-----------------------------------------------------------------------------------------------------|
B|-----------------------------------------------------------------------------------------------------|
G|-----------------------------------------------------------------------------------------------------|
D|--------------------------------------------------------------------------10------12------10------12-|
A|-----7---9-------7---9---10---9------7---9-------12---10---9---10---------10------10------10------10-|
E|-0-0---0---0-0-0---0---0----0----0-0---0---0-0-0----0----0---0-----8-8-8-8-8-8-8-8-8-8-8-8-8-8-8-8-8-|

   ...   .   ...   .   .    .   ...   .
E|-------------------------------------------------------|
B|-------------------------------------------------------|
G|-------------------------------------------------------|
D|-------------------------------------------------------|
A|-0-0-7-0-9-0-0-7-0-9-0-10-0-9-----9---10--10-10--12-12-|
E|------------------------------7-7---7------8--8--10-10-|


Gtr 2
       ...  ...
E|--------------|
B|--------------|
G|--------------|
D|-2---2-2--2-2-|
A|-2---2-2--2-2-|
E|-0---0-0--0-0-|
  ...    .   .....    .   .    .       ...   .    ....     .    .   .      ......   ..... .....    .....
E|-----------------------------------------------------------------------------------------------------------|
B|-----------------------------------------------------------------------------------------------------------|
G|-----9---11-------9---11---12----11------9---11-------14---12---11---12------------------------------------|
D|--------------------------------------------------------------------------------10------12------10------12-|
A|--------------------------------------------------------------------------------10------10------10------10-|
E|-0-0---0----0-0-0---0----0----0------0-0---0----0-0-0----0----0----0-----8-8-8-8-8-8-8-8-8-8-8-8-8-8-8-8-8-|

   ...   .   ...   .   .    .   ...   .
E|-----------------------------------------------------------|
B|-----------------------------------------------------------|
G|-----9---11-----9---11---12---11-----11---12---------------|
D|-----------------------------------------------------------|
A|-0-0---0----0-0---0----0----0-----------------10-10--12-12-|
E|---------------------------------7-7----7------8--8--10-10-|

Then:
Gtr 1
   .      .      .      .      ...  ...
E|--------------------------------------|
B|--------------------------------------|
G|--------------------------------------|
D|---2~-----2~-----2~-----2~---2-2--2-2-|
A|---2~-----2~-----2~-----2~---2-2--2-2-|
E|-0-0~---0-0~---0-0~---0-0~---0-0--0-0-|

Gtr 2
   .             .              .             .     ........
E|-----------------------------------------------------------|
B|-----------------------------------------------------------|
G|-----------------------------------------------------------|
D|---2--5---4------2--------------2--5---4------2~--2-2--2-2-|
A|---2----7---5----2--9-7-10-9----2----7----5---2~--2-2--2-2-|
E|-0-0-----------0-0------------0-0-----------0-0~--0-0--0-0-|

REPEAT INTRO/VERSE

Then:
Gtr 1
   .      .      .      .              .     .     ........
E|----------------------------------------------------------|
B|----------------------------------------------------------|
G|----------------------------------------------------------|
D|---2~-----2~-----2~-----2~--5~---7~----2~----2~--2-2--2-2-|
A|---2~-----2~-----2~-----2~--3~---5~----2~----2~--2-2--2-2-|
E|-0-0~---0-0~---0-0~---0-0~--3~---5~--0-0~--0-0~--0-0--0-0-|

Gtr 2
   .      .      .      .              .     .     ........
E|----------------------------------------------------------|
B|----------------------------------------------------------|
G|----------------------------------------------------------|
D|---2~-----2~-----2~-----2~--5~---7~----2~----2~--2-2--2-2-|
A|---2~-----2~-----2~-----2~--3~---5~----2~----2~--2-2--2-2-|
E|-0-0~---0-0~---0-0~---0-0~--3~---5~--0-0~--0-0~--0-0--0-0-|
   .             .              .             .                            .
    ...  ...
E|------------------------------------------------------------------------------------------------------|
B|------------------------------------------------------------------------------------------------------|
G|----------------------------------------------------------9-11----10-12-------------------------------|
D|---2--5---4------2--------------2--5---4------2--9-10--5--x--x--7--x--x----2--5---4------2~--2-2--2-2-|
A|---2----7---5----2--9-7-10-9----2----7----5---2--x--x--3--7--9--5--9-10----2----7---5----2~--2-2--2-2-|
E|-0-0-----------0-0------------0-0-----------0-0--7--8--3--------5--------0-0-----------0-0~--0-0--0-0-|


Chorus:
Gtr 1
E|-------------------------------------------------------------|
B|-------------------------------------------------------------|
G|-------------------------------------------------------------|
D|-12-12--12-12--10-10--9-9---5-5-5-5-5-5-5-5--7-7-7-7-7-7-7-7-|
A|--7--7---7--7---7--7--7-7---3-3-3-3-3-3-3-3--5-5-5-5-5-5-5-5-|
E|--0--0---0--0---0--0--0-0---3-3-3-3-3-3-3-3--5-5-5-5-5-5-5-5-|

E|-------------------------------------------------------------------|
B|-------------------------------------------------------------------|
G|-------------------------------------------------------------------|
D|-2-2---------2-2----------5-5-5-5-5-5-5-5-5-5--7-7-7-7-7-7-7-7-7-7-|
A|-2-2--\10-9--2-2--\10-9---3-3-3-3-3-3-3-3-3-3--5-5-5-5-5-5-5-5-5-5-|
E|-0-0---------0-0----------3-3-3-3-3-3-3-3-3-3--5-5-5-5-5-5-5-5-5-5-|

Gtr 2
E|-------------------------------------------------------|
B|-------------------------------------------------------|
G|-------------------------------------------------------|
D|-2-2--2-2--2-2--2-2---5-5-5-5-5-5-5-5--7-7-7-7-7-7-7-7-|
A|-2-2--2-2--2-2--2-2---3-3-3-3-3-3-3-3--5-5-5-5-5-5-5-5-|
E|-0-0--0-0--0-0--0-0---3-3-3-3-3-3-3-3--5-5-5-5-5-5-5-5-|

E|----------------------------------------------------------------|
B|----------------------------------------------------------------|
G|----------------------------------------------------------------|
D|-2-2--\9-7--2-2--\9-7--5-5-5-5-5-5-5-5-5-5--7-7-7-7-7-7-7-7-7-7-|
A|-2-2--------2-2--------3-3-3-3-3-3-3-3-3-3--5-5-5-5-5-5-5-5-5-5-|
E|-0-0--------0-0--------3-3-3-3-3-3-3-3-3-3--5-5-5-5-5-5-5-5-5-5-|

REPEAT ALL THE SONG AGAIN

Bridge: (I cant understand this part, so I take this from Andrew Zara's tab)
Both guitars
E|------------------------------------------------------------------------------|
B|------------------------------------------------------------------------------|
G|------------------------------------------------------------------------------|
D|--------------------------------------------------------------------------7---|
A|-10p9p7h9--------7--------3---2-------7--------3--10-9--------7---10p9p7h9----|
E|----------8-0--7----0h3h5---0----0-/7----0-3h5----------0-/-7---0-----------8-|

Solo:
Gtr 1
E|--------------------------------|----------------------------------------------------------------------------|
B|------------------------8-10-12-|-8p7---------------------------8p7------------10-10/12-12-12-12-10-10-10-10-|
G|-----------------7-9-11---------|-----9-9-9-9-9-9--7-7-7-7-7-7------9-9-9-9-9--------------------------------|
D|---------7-9-10-----------------|----------------------------------------------------------------------------|
A|-7-9-10-------------------------|----------------------------------------------------------------------------|
E|--------------------------------|----------------------------------------------------------------------------|

E|-12p10p8-12p10p8---------------------------------------------------|
B|------------------12p10p8-12p10p8----------------------------------|
G|-----------------------------------11p9p7-11p9p7-------------------|
D|--------------------------------------------------10p9p7-10p9p7--5-|
A|-------------------------------------------------------------------|
E|-------------------------------------------------------------------|

Gtr 2
E|---------------------7-8-10-|-8p7------------------------------8p7--------------8-8/10-10-10-10-8-8-8-8-|
B|--------------7-8-10--------|-----8-8-8-8-8-8-8--7-7-7-7-7-7-------8-8-8-8-8-8--------------------------|
G|--------5-7-9---------------|---------------------------------------------------------------------------|
D|-5-7-9----------------------|---------------------------------------------------------------------------|
A|----------------------------|---------------------------------------------------------------------------|
E|----------------------------|---------------------------------------------------------------------------|

E|------------------------------------------------------------------------|
B|-13p12p10-13p12p10------------------------------------------------------|
G|-------------------12p11p9-12p11p9--------------------------------------|
D|------------------------------------12p10p9-12p10p9---------------------|
A|-----------------------------------------------------12p10p9-12p10p9--7-|
E|------------------------------------------------------------------------|

REPEAT INTRO/VERSE AND CHORUS

Easy!
TRIVIUM RULES!
PEACE!
comments
print report bad tab
7 comments total. Showing first comments.
+1 reply
metalicatrivium wrote on January 27 2007, 08:27 pm

nice tab. i been looking for one of this song where it had the harmonizing guitars in the main riff. 5*

+1 reply
zackvalo16 wrote on June 11 2007, 11:44 pm

nice job man 5 stars

0 reply
**A7X** wrote on July 12 2007, 12:33 am

sexy....but not sexy enough can u plz tab the very very end solo at the end of the song wen it fades thats a rly nice solo especially if u lsn really closely u can hear matt sweeping shit thats tite plz i noe u can do it!

I want to post or [tab]
guest
You may want to rate the tab now too:
select rating
Please do not post tabs as comments. Select "correction" instead!