Oops, an error
Loading. Please wait.

Ensnare The Sun Tab

1,194 views 6 this week
no commentswrite comment
1 2 3 4 5
excellent!
x 3
add to favorites
launch autoscroll
font size
0
reset
how to read this tab
guitar tuner
Tab Pro tools
  • play this tab
  • loop segment
  • change instrument
  • show fretboard
  • metronome
Autoscroll
slow
fast
+/-
esc
set tempo
stop
Contributor
Difficulty
Tuning
novice
C# G# C# F# A# D#
Band:  Trivium
Song:  Ensnare The Sun
Album: In Waves

Tuning: Drop C# (C#, G#, C#, F#, A#, D#)
(Tune all strings down half a step then drop tune)

Easy song, really catchy aztec sounding riff.
The struming patterns are a bit difficult to get the hang of at
First but it should come naturally after some practice.

Please rate, comment or give corrections :)

Slide up:     /

Acoustic guitar 1: Matt Heafy
Acoustic guitar 2: Corey Beaulieu
Acoustic guitar 3: Matt Heafy (extra)

Matt's singing Intro
(No guitar, these are just the notations of what he sings)
|-14-----------15---|-17---18-17-15---17-15-|-14-------11---10-|
|-------------------|-----------------------|------------------|
|-11-----------12---|-14---15-14-12---14-12-|-11--------8----7-|
|-------------------|-----------------------|------------------|
|-------------------|-----------------------|------------------|
|-------------------|-----------------------|------------------|

-Break-

Verse
Acoustic guitar 1
(Plays through out verse)
|-10--------|
|-10--------|
|--7--------|
|--0--------|
|--0--------|
|--0--------|

Acoustic guitar 2

|-14----14--14-14----14--14-15--15-15-|-17----17--17-17--15----15--15-15---|
|-------------------------------------|------------------------------------|
|-11----11--11-11----11--11-12--12-12-|-14----14--14-14--12----12--12-12---|
|--0-----0---0--0-----0---0--0---0--0-|--0-----0---0--0---0-----0---0--0---|
|-------------------------------------|------------------------------------|
|-------------------------------------|------------------------------------|

|-14----14--14-14----14--14-11--11-11-|-10--10-8---8-10--10-11--11-10---8--|
|-------------------------------------|------------------------------------|
|-11----11--11-11----11--11--8---8--8-|--7---7-7---7--7---7--7---7--7---7--|
|--0-----0---0--0-----0---0--0---0--0-|--0---0-0---0--0---0--0---0--0---0--|
|-------------------------------------|------------------------------------|
|-------------------------------------|------------------------------------|

Acoustic guitar 3
(Plays through out verse)
|-----------|
|-----------|
|-/11-------|
|-----------|
|-/-9-------|
|---0-------|

Outro
Acoustic guitar 1
||-10--10-8---8-10--10-11--11-10---8--|| x3 |-10-|
|o------------------------------------o|    |----|
||--7---7-7---7--7---7--7---7--7---7--||    |--7-|
||--0---0-0---0--0---0--0---0--0---0--||    |--0-|
|o------------------------------------o|    |----|
||------------------------------------||    |----|

That's all, please rate :)
comments
We did not receive enough feedback on this tab! Please rate:
print report bad tab
1 2 3 4 5
I want to post or [tab]
guest
You may want to rate the tab now too:
select rating
Please do not post tabs as comments. Select "correction" instead!