Oops, an error
Loading. Please wait.

Entrance Of The Conflagration Tab

version 1
version 1
8,749 views 1 this week
8 commentsread comments
1 2 3 4 5
1 last vote to show rating
add to favorites
launch autoscroll
font size
0
reset
how to read this tab
guitar tuner
Autoscroll
slow
fast
+/-
esc
set tempo
stop
Help us to improve Ultimate-Guitar.com Take our survey!
×
Author
This tab is from a guitar lesson Trivium did for guitar world so its 100% correct i take 
credit for tabbing it, thought eveyone would want the real tab!

Corey Solo

PM PM    PM PM             PM
  E  E  E  E  E  E  E  E     E  E  E  E  E  E   E  E
--------------------------|---------------------------|
--------------------------|---------------------------|
--L--2--------2--------5--|--L--5-----4--L--9s--4--4--|
--L--3--------3--------5--|--L--5-----5---------------|
--------------------------|---------------------------|
--------1--1-----1--3-----|--------3------------------|


  Q    Q    E  E  E  E     Q    Q    Q    E  E
------------------------|-----------------------|
------------------5--3--|--L--------------------|
--L----5----L--5--------|-------5----4----5--4--|
------------------------|-----------------------|
------------------------|-----------------------|
------------------------|-----------------------|


     PM PM PM PM PM             PM PM PM PM
  E  E  E  E  E  E  E  E     E  E  E  E  Q    E  E
--------------------------|-------------------------|
--------------------6--5--|--L----------------6--5--|
--L-----------4--7--------|-----7--5--7--5----------|
-----7--5--7--------------|-------------------------|
--------------------------|-------------------------|
--------------------------|-------------------------|


        PM PM        PM             PM PM PM
  E  E  E  E  S S E  E  E     E  E  E  E  E  E  E    E
---------------------------|----------------------------|
--L---------------------6--|--L--5-----------5--6S--10--|
-----7--5--7--5-5-5--7-----|--------7--5--7-------------|
---------------------------|----------------------------|
---------------------------|----------------------------|
---------------------------|----------------------------|


  Q     Q     E   Q    E     E   Q     E   Q     E   E
--------------------------|------------------------------|
--L----10----10S--8----8--|--L--13----13~--L~-------15b--|
--------------------------|------------------------------|
--------------------------|----------------------x-------|
--------------------------|------------------------------|
--------------------------|------------------------------|


                   |-------3-------|
   Q       Q       Q       Q       Q
------------------------------------------|
--15pb----15pb----15pb----15pb----15pb----|
------------------------------------------|
------------------------------------------|
------------------------------------------|
------------------------------------------|


   E     E     E     E     E     E     S   S  E
-------------------------------------------------|
--15pb--15pb--15pb--15pb--15pb--15pb--15p-13-15--|
-------------------------------------------------|
-------------------------------------------------|
-------------------------------------------------|
-------------------------------------------------|


                          |----3---|
   E   S  S  S   S   E    E    E   E   S  S   E
--------------------------------------------------|
---L--13-13-15p-13s-12h--13p--12------12----------|
----------------------------------14-----14p-12h--|
--------------------------------------------------|
--------------------------------------------------|
--------------------------------------------------|


  E    E    E   E   Q.      E
-------------------------------|
---------------------------17--|
--Lh--14s--17--14~--L----------|
-------------------------------|
-------------------------------|
-------------------------------|


  E   E   E   E   E    E   E   E
-----------------------------------|
--L--17--17--17--17s--15--15--15s--|
-----------------------------------|
-----------------------------------|
-----------------------------------|
-----------------------------------|


   E   E   E   E   E   E  Q
--------------------------------|
--10--10--10--10--10s--8--8\----|
--------------------------------|
--------------------------------|
--------------------------------|
--------------------------------|


  |--3--|   |---3---|  |---3--|
  E  E  E   E   E   E  E   E  E   S   S  S  S
--------5--12p--9-------------8--17p-12-------|
-----6-------------10-----10------------13----|
--7--------------------9-------------------14-|
----------------------------------------------|
----------------------------------------------|
----------------------------------------------|


   E   E   E   E  E   E    E   E      Q    Q    Q    Q
-----------------------------------|----------------------|
----------13--12--L----------------|----------------------|
---------------------14s--12--14~--|--L-------------------|
-----------------------------------|----------------------|
--12--14---------------------------|----------------------|
-----------------------------------|----------------------|

Corey Solo Harmony
You should be able to figure out where these parts go!

E  E  E  E  E  E  E  E     Q    Q    E   Q    E
-----------------------8--|--L----8----8S--7----7--|
--------------------------|------------------------|
--------------------------|------------------------|
--------------------------|------------------------|
--------------------------|------------------------|
--------------------------|------------------------|


  E   Q     E   Q     E  E
--L--12----12~--L~----------|-------|-------|-------|
----------------------------|-------|-------|-------|
----------------------------|-------|-------|-------|
----------------------------|-------|-------|-------|
----------------------------|-------|-------|-------|
----------------------------|-------|-------|-------|


  E  E  E  E  Q.      E     E   E   E   E   E    E   E   E
---------------------15--|--L--15--15--15--15s--13--13--13s--|
-------------------------|-----------------------------------|
-------------------------|-----------------------------------|
-------------------------|-----------------------------------|
-------------------------|-----------------------------------|
-------------------------|-----------------------------------|


  E  E  E  E  E   E  Q
--8--8--8--8--8s--7--7\----|-------|
---------------------------|-------|
---------------------------|-------|
---------------------------|-------|
---------------------------|-------|
---------------------------|-------|


  E  E   E   E  E   E    E   E      Q    Q    Q    Q
--------12--10--L----------------|----------------------|-------|
-------------------13s--12--13~--|--L-------------------|-------|
---------------------------------|----------------------|-------|
---------------------------------|----------------------|-------|
---------------------------------|----------------------|-------|
---------------------------------|----------------------|-------|


Matt Solo

H        Q    E   E
-----|-----|-----|-----|-----------------------|
-----|-----|-----|-----|-------------------20--|
-----|-----|-----|-----|-----------------------|
-----|-----|-----|-----|-----------------------|
-----|-----|-----|-----|-----------------------|
-----|-----|-----|-----|-----------------------|


  S  S  E   S  S  E   S  S  S  S  S  S  S  S
----17--------17--------17-20-17-20-17-20-22-|
--L----20b--L----20b--L----------------------|
---------------------------------------------|
---------------------------------------------|
---------------------------------------------|
---------------------------------------------|


   S  S  S  S  S  S  S  S  S  S  S  S  S  S  S  S
--20-17-------20-17-------20-17-18-17-19-17-20-17-|
--------20-17-------20-17-------------------------|
--------------------------------------------------|
--------------------------------------------------|
--------------------------------------------------|
--------------------------------------------------|


   S   E   S   E  S  S   E   S   S  S  S  S  S
-----------------------------------------------|
--20p-17--20p-17----20p-17--20p-17-------------|
-----------------------------------19-17-19-17-|
-----------------------------------------------|
-----------------------------------------------|
-----------------------------------------------|


   Q      Q      Q      Q
-----------------------------|
-----------------------------|
--19b----19~----17~----------|
-----------------------19----|
-----------------------------|
-----------------------------|


   E   E   E    E   E   E    E   E
------------------------------------|
------------------------------------|
--17------17s--16------16s--14------|
------19-----------17-----------15--|
------------------------------------|
------------------------------------|


   E    E   E   E    E   E   E   E     Q    Q      E   E  E  E
------------------------------------|---------------------------|
------------------------------------|---------------------------|
--14s--12------12s--10------10--10--|--L----L~----10s--9--9--9--|
-----------14-----------12----------|---------------------------|
------------------------------------|---------------------------|
------------------------------------|---------------------------|


         |---3--|
  E   E  S   S  S  E  E   Q.
---------------------------------|
---------------------------------|
--L--10--9h-10p-9----------------|
------------------12--L--10------|
---------------------------------|
---------------------------------|


  PM  PM  PM     PM  PM PM  PM  PM PM  PM  PM
  |---3---|  |---3---|  |---3---|  |---3---|
  E   E   E  E   E   E  E   E   E  E   E   E
----------------------------------------------|
----------------------------------------------|
----------------------------------------------|
-------------9--------------------------------|
-----------------------------------8--10--12--|
--8--10--12-----12--10--8--10--12-------------|


  PM  PM  PM     PM  PM PM  PM  PM PM  PM  PM
  |---3---|  |---3---|  |---3---|  |---3---|
  E   E   E  E   E   E  E   E   E  E   E   E
----------------------------------------------|
----------------------------------------------|
-------------9--------------------------------|
-----------------------------------9--10--12--|
--8--10--12-----12--10--8--10--12-------------|
----------------------------------------------|


  PM  PM  PM      PM  PM PM  PM  PM
  |---3---|   |---3---|  |---3---|   |---3---|
  E   E   E   E   E   E  E   E   E   E   E   E
------------------------------------------------|
-------------10---------------------10--12--13--|
------------------------------------------------|
--9--10--12------12--10--9--10--12--------------|
------------------------------------------------|
------------------------------------------------|


   |---3---|   |---3---|   |---3---|   |---3---|
   E   E   E   E   E   E   E   E   E   E   E   E
--------------10----------------------10--12--13--|
--10--12--13------13--12--10--12--13--------------|
--------------------------------------------------|
--------------------------------------------------|
--------------------------------------------------|
--------------------------------------------------|


  E  E   E   E   E   E   E   E
--------13--12--10---------------|
--------------------13--12--10~--|
---------------------------------|
--x--x---------------------------|
--x--x---------------------------|
---------------------------------|


  Q      E   E  E   E   E   E     Q     E  E  E   E  E  E
--------12--10--8--------------|-------10--8--7-------------|
--L~---------------12--10------|-----------------10--8------|
---------------------------10--|--L---------------------9~--|
-------------------------------|----------------------------|
-------------------------------|----------------------------|
-------------------------------|----------------------------|


  Q.       E   H
-------------------------||
-------------------------||
--L~------10~--L~--------||
-------------------------||
-------------------------||
-------------------------||

uration Legend
---------------
W - whole
H - half
Q - quarter
E - 8th
S - 16th
T - 32nd
X - 64th
. - note dotted
|-n-|  - n-tuplets


Tablature Legend
----------------
L - tied note
x - dead note
g - grace note
(n) - ghost note
> - accentuded note
NH - natural harmonic
AH - artificial harmonic
TH - tapped harmonic
SH - semi harmonic
PH - pitch harmonic
h - hammer on
p - pull off
b - bend
br - bendRelease
pb - preBend
pbr - preBendRelease
brb - bendReleaseBend
\n/ - tremolo bar dip
\n - tremolo bar dive
-/n - tremolo bar Release up
/n\ - tremolo bar inverted dip
/n - tremolo bar return
-\n - tremolo bar Release down
S - shift slide
s - legato slide
/ -  slide into from below or out of upwards
\ -  slide into from above or out of downwards
~ - vibrato
W - wide vibrato
tr - trill
TP - tremolo picking
T - tapping
S - slap
P - pop
< - fade in
^ - brush up
v - brush down
Suggest correction
Give kudos to tab author, rate the tab!
1 2 3 4 5
comments
print report bad tab
8 comments total. Showing first comments.
-1 reply
Lukige 1,637 Dec 09, 2006 04:26 AM

You stole this from calypso101's powertab! Shame on you for trying to claim it as your own.

+1 reply
deathbat411 382 Dec 09, 2006 11:50 AM

ENTRANCE! OF! THE! CON!-FLAG!-RATION!
OooH! OooH! OooH! OooH! OooH! OooH! OooH!!!!!!!

-1 reply
zackvalo16 119 Dec 09, 2006 11:54 AM

confusing much?..this isn't the one outta Guitar World either cause i have that one and this one you have here is much different...the one that Lukige did is like exactly right to the guitar world thing so go check that out....i posted it but it's his...

guest
You may want to rate the tab now too:
select rating
Wanna post a correction for this tab? Suggest correction