Oops, an error
Loading. Please wait.

Entrance Of The Conflagration bass

version 2
version 2
by Trivium
5,112 views 1 this week
18 commentsread comments
1 2 3 4 5
x 16
add to favorites
×
Save as Personal and add changes to this tab that will be seen only by you. Learn more ›
×
You can save this tab as Personal to edit and correct it or add notes. All changes will be seen only by you. Learn more »
launch autoscroll
font size
0
reset
guitar tuner
edit
Autoscroll
slow
fast
+/-
esc
set tempo
stop
Author
Difficulty
Song: Entrance of the Conflagration
Artist: Trivium (Music and Lyrics written by Matt Heafy)
Album: The Crusade (2006)
Tabbed out by: Deathbat411
Tuning: Standard (low to high: EADG)

I dont take all the credit for this tab. Some parts are the parts that were correct from 
version 1. the parts that were wrong in version 1 are replaced with correct parts from 
Guitar World Magazine or Me.
please rate & comment

Main Riff (comes in after the Oh Oh s)
|----------------------------------------------------------------|
|*---------------------------------------------------------------|
|*---------------------------------------------------------------|
|--0--00--00-2h3-6-6-0-0-0-0-0-0-0-8-7-7-7-7-5-5-5-5-7-5-5-5-5-3-|

|--------------------------------------------------|
|---------------------------------------------5p4-*|
|---------------------------------------0h1h2-----*|
|-0--00--00-2h3-6-6-0-0-0-0-0-0-0-0h2h3------------| 3x

Fill A (this parts unbelievibly hard)  ;)
|---|
|---|
|---|
|-0-| 1x

Chorus
|----------------------------------------------------------------------|
|----------------------------------------------------------------------|
|-3-3-3-3-3/6-6-6-6-6/7-7-7-7-7---------------------------777777777777-|
|-------------------------------5-5-5-5-2-3-7-7-7-7-7-7-7--------------| 1x

Main Riff 2x
Fill A 1x
Chorus 2x

Pre-Bridge (while guitar is playing)
|--------------------------------------------------------------------|
|--------------------------------------------------------------------|
|--------------------------------------------------------------------|
|-(0)----------------------------------------------------------------| 1x

Bridge
|--------------------------------------------------------------------|
|-2-2222-2/4-4444-4/5-5555-5\1-1111-1\2-2222-2--------1-1111-1-------|
|---------------------------------------------3-3333-3--------2-2222-|
|--------------------------------------------------------------------| 2x

Pre-Solo (With fiddly bits Satan Man spoke of)
|---------------------------------------------------------------|
|*--------------------------------------------------------------|
|*-7---7---7---7---7-6-7---7---7--------10--------------13------|
|----0---0---0---0-------0---0---0h8h11----11p8p0-11h14----14p0-|

|------------------------------------------------------------|
|-----------------------------------------------------------*|
|-7---7---7---7---7-6-7---7---7-----------------------------*|
|---0---0---0---0-------0---0---5-5-5-5-5-5-5-4-4-4-4-4-4-4--| 2x

Fill B
|----------------------------------------------------------|
|*---------------------------------------------------------|
|*-7-7-7-7-7-7-7-6-6-6-6-6-6-6-----------------------------|
|------------------------------8-8-8-8-8-8-8-7-7-7-7-7-7-7-|

|------------------------------|
|-----------------------------*|
|-7-7-7-7-7-7-7-6-6-6-6-6-6-6-*|
|------------------------------| 1x

Solo Backing
|-----------------------------------|
|*----------------------------------|
|*-0-0-000-0-00-000-----------------|
|------------------3-3-333-3-33-333-|

|------------------------------------|
|-----------------------------------*|
|-----------------------------------*|
|-0-0-000-0-00-000-1-1-111-1-11-111--| 5x

Pre-Solo 2x
Fill B 1x
Main Riff 2x
Fill A 1x
Chorus 2x

End on
|--------------------|
|--------------------|
|--------------------|
|-(0)----------------| 1x

Key
h - hammer on
p - pull off
\ - slide down to
/ - slide up to
( ) - hold note
|----|
|*--*| repeat bars as many times as noted 
|*--*|
|----|

Have fun!    :)

Bibliography
Main Riff: Deathbat411
Chorus: Version 1/Deathbat411
Bridge: Version 1/Deathbat411
Pre-Solo: Guitar World/Deathbat411
Solo: Guitar World/Deathbat411 

            
            
Suggest correction
Creating personal tab
Creating personal tab
You can edit any tab online and save it as your Personal.

You can edit, replace or remove any tab part or add personal notes – all changes will be seen only by you.

Personal tabs can be accessed anytime from any device, even offline.
Learn more »
comments
print report bad tab
18 comments total. Showing first comments.
0 reply
deathbat411 382 Nov 14, 2006 03:17 AM

please rate & comment

0 reply
deathbat411 382 Nov 15, 2006 04:50 PM

person who gave me 2 stars, give me a reason why u gave me 2 stars so i can improve. please

0 reply
deathbat411 382 Nov 16, 2006 12:20 PM

dude y wudy do u have a reson for giving me tab 2 stars its better than that....Jackass

guest
You may want to rate the tab now too:
select rating
Wanna post a correction for this tab? Suggest correction