Oops, an error
Loading. Please wait.

Entrance Of The Conflagration Tab

version 3
45,606 views 81 this week
30 commentsread comments
1 2 3 4 5
excellent!
x 24
add to favorites
launch autoscroll
font size
0
reset
how to read this tab
guitar tuner
Autoscroll
slow
fast
+/-
esc
set tempo
stop
Help us to improve Ultimate-Guitar.com Take our survey!
×
Author
Difficulty
advanced
Band:  Trivium
Album: The Crusade
Song:  Entrance of the Conflagration

Version 1.0 - 09/15/2006
Transcribed By: MurderThyLamb
Email:          murderthylamb@gmail.com
If you find anything wrong with this tab, please e-mail me my error and I will fix it.

KEY:
x  - palm mute           /  - slide up to
\  - slide down to       ~  - vibrato
h  - hammer on           b  - Bend
p  - pull off            Suffixes for bend
t  - tap                 f  - full bend    h - half bend
ph - pinched harmonic    q  - quarter bend t - tap bend
"  - tremolo note        ^  - Hold bend    r release bend
x  - Stuccatto           ~  - vibrato bend
,  - slight palm mute    () - ghost note, sustained note
                         <> - Trill

***NOTE***:
	The tab is written in the order that it is played. Instead of typing or pasting the previous riffs, I have
labled each riff, and when they need to be played, I have put a marker (ex: Play Riff A - 1x). Please try not to
confuse yourself, I have done this to prevent as much confusion as my previous tabs have received. Also: The riff
letters are not relevant to the letters that are used for the riffs in the video.
	Thanks,
		MurderThyLamb


Tuning (Low to High): E A D G B e (Standard Tuning)
Tempo: 184bpm


|Riff A
||Guitar 1
e|---------------------------------------------------------------------|
B|---------------------------------------------------------------------|
G|---------------------------------------------------------------------|
D|-----------------4-5-8---8-------------------------------------------|
A|--2----2----2--0-2-3-6---6-2-----------------------------------------|
E|--0-00-0-00-0--0-2-3-6---6-0-0000-0000-0000-8-p7--7-7-7p5-555p3--00--|
||
||Guitar 2
e|---------------------------------------------------------------------|
B|---------------------------------------------------------------------|
G|---------------------------------------------------------------------|
D|-----------------4-5-8---8-------------------------------------------|
A|--2----2----2--0-2-3-6---6-2----------------12p10-101010p9-999p7-----|
E|--0-00-0-00-0--0-2-3-6---6-0-0000-0000-0000----------------------00--|


|Riff B
||Guitar 1
e|-------------------------------------------------------------|
B|-------------------------------------------------------------|
G|-------------------------------------------------------------|
D|-----------------4-5-8---8------------------------------5-4--|
A|--2----2----2--0-2-3-6---6-2----------------------0-1-2------|
E|--0-00-0-00-0--0-2-3-6---6-0-0000-0000-0000-0-2-3------------|
||
||Guitar 2
e|-------------------------------------------------------------|
B|-------------------------------------------------------------|
G|-------------------------------------------------------------|
D|-----------------4-5-8---8------------------------------5-4--|
A|--2----2----2--0-2-3-6---6-2----------------------0-1-2------|
E|--0-00-0-00-0--0-2-3-6---6-0-0000-0000-0000-0-2-3------------|


Play Riff A - 1x


|Riff C
||Guitar 1
e|---------------------------------------------------------------|
B|---------------------------------------------------------------|
G|---------------------------------------------------------------|
D|-----------------4-5-8---8------------------------------5-4~~--|
A|--2----2----2--0-2-3-6---6-2----------------------0-1-2--------|
E|--0-00-0-00-0--0-2-3-6---6-0-0000-0000-0000-0-2-3--------------|
||
||Guitar 2
e|------------------------------------------------------------------------------|
B|------------------------------------------------------------------------------|
G|-----------------------------------------------------------------------5-4~~--|
D|-----------------4-5-8---8---------------------------------------1-4-5--------|
A|--2----2----2--0-2-3-6---6-2-------------------------------0-1-2--------------|
E|--0-00-0-00-0--0-2-3-6---6-0-0000-0000-0000-----------------------------------|


|Riff D
||Guitar 1
e|----------------------------------------------5-----------------------------------------------------------------------------|
B|------------------------------------8-8-8-----5-----------------------------------------------------------------------------|
G|----4-------------------------------9-9-9-----5------------8-------8-------8------------------------------------------------|
D|----5----7---5-7---4---7---4-7---9--9-9-9-----7------------9-------9-------9-----7-8-9-----9----9----9----8-8-8-9-----------|
A|--3-3--3-3-3-3-3/6-6-6-6-6-6-6-6-7--7-7-7--7--7-------9----9-------9-------9---9-5-6-7--77-7-77-7-77-7-77-6-6-6-7--------2--|
E|-------------------------------------------5--5-5-6-7-7--7-7-7-7-7-7-7-7-7-7-7-7-----------------------------------0-0-0-0--|
||
||Guitar 2
e|----------------------------------------------5-----------------------------------------------------------------------------|
B|------------------------------------8-8-8-----5-----------------------------------------------------------------------------|
G|------------------------------------9-9-9-----5------------8-------8-------8------------------------------------------------|
D|-------------------4---7---4-7---9--9-9-9-----7------------9-------9-------9-----7-8-9-----9----9----9----8-8-8-9-----------|
A|-----------------6-6-6-6-6-6-6-6-7--7-7-7--7--7-------9----9-------9-------9---9-5-6-7--77-7-77-7-77-7-77-6-6-6-7--------2--|
E|-------------------------------------------5--5-5-6-7-7--7-7-7-7-7-7-7-7-7-7-7-7-----------------------------------0-0-0-0--|


Play Riff A - 1x
Play Riff B - 1x
Play Riff A - 1x
Play Riff C - 1x
Play Riff D - 1x


|Riff E Pt.1 **Read Note
||Guitar 1
e|---------------------------------------------------------------------------|
B|---------------------------------------------------------------------------|
G|---------------------------------------------------------------------------|
D|--9--------------9-11--------------11/12--------------12\8-----------------|
A|--7--------------7/9---------------9-/10--------------10\6-6666-6666-6666--|
E|----0000-0000-00------0000-0000-00-------0000-0000-00----------------------|
||
||Guitar 2
e|----------------------------------------------------------------------------|
B|----------------------------------------------------------------------------|
G|--12--------------12/14--------------14/16--------------16\11---------------|
D|----------------------------------------------------------------------------|
A|--10--------------10/12--------------12/14--------------14\9--9999-9999-99--|
E|-----0000-0000-00-------0000-0000-00-------0000-0000-00---------------------|


**Riff E Pt.1 Note:
Guitar 2 doesn't play first time around.


|Riff E Pt.2
||Guitar 1
e|------------------------------------------------------------------------|
B|------------------------------------------------------------------------|
G|------------------------------------------------------------------------|
D|--9---------------9\5--------------5/8--------------6\4-----------------|
A|--7--7777-7777-77-7\3-3333-3333-33-3/6-6666-6666-66-6\2-2222-2222-22-0--|
E|---------------------------------------------------------------------0--|
||
||Guitar 2
e|------------------------------------------------------------------------|
B|------------------------------------------------------------------------|
G|------------------------------------------------------------------------|
D|--9---------------9\5--------------5/8--------------6\4-----------------|
A|--7--7777-7777-77-7\3-3333-3333-33-3/6-6666-6666-66-6\2-2222-2222-22-0--|
E|---------------------------------------------------------------------0--|


Play Riff E Pt.1 - 1x with Guitar 2


|Riff E Pt.3
||Guitar 1
e|------------------------------------------------------------------------|
B|------------------------------------------------------------------------|
G|------------------------------------------------------------------------|
D|--9---------------9\5--------------5/8--------------6\4-----------------|
A|--7--7777-7777-77-7\3-3333-3333-33-3/6-6666-6666-66-6\2-2222-2222-22-0--|
E|---------------------------------------------------------------------0--|
||
||Guitar 2
e|-----------------------------------------------------------------------------------|
B|-----------------------------------------------------------------------------------|
G|--12------------------------12\9--------------9/11--------------11\8---------------|
D|-----------------------------------------------------------------------------------|
A|--10-10101010-10101010-1010-10\7-7777-7777-77-7/9--9999-9999-99-9-\6-6666-6666-66--|
E|-----------------------------------------------------------------------------------|


|Riff F Pt.1
||Guitar 1
e|----------------------------------------------------------------------------------|
B|----------------------------------------------------------------------------------|
G|----------------------------------------------------------------------------------|
D|--9-----9-----9-----9-----9---8-8-9-----9-----9-----------------------------------|
A|--7-----7-----7-----7-----7---7-7-7-----7-----7----------10--------------13-------|
E|----0-0---0-0---0-0---0-0---0-------0-0---0-0---0-0-8-11----11-8-0-11-14----14-0--|
||
||Guitar 2
e|----------------------------------------------------------------------------------|
B|----------------------------------------------------------------------------------|
G|----------------------------------------------------------------------------------|
D|--9-----9-----9-----9-----9---8-8-9-----9-----9-----------------------------------|
A|--7-----7-----7-----7-----7---7-7-7-----7-----7----------10--------------13-------|
E|----0-0---0-0---0-0---0-0---0-------0-0---0-0---0-0-8-11----11-8-0-11-14----14-0--|


|Riff F Pt.2
||Guitar 1
e|-------------------------------------------------------------------------------------|
B|-------------------------------------------------------------------------------------|
G|-------------------------------------------------------------------------------------|
D|--9-----9-----9-----9-----9---8-8-9-----9-----9-----------14---------------13--------|
A|--7-----7-----7-----7-----7---7-7-7-----7-----7---0-12-15----15-12-0-11-14----14-11--|
E|----0-0---0-0---0-0---0-0---0-------0-0---0-0---0------------------------------------|
||
||Guitar 2
e|-------------------------------------------------------------------------------------|
B|-------------------------------------------------------------------------------------|
G|-------------------------------------------------------------------------------------|
D|--9-----9-----9-----9-----9---8-8-9-----9-----9-----------14---------------13--------|
A|--7-----7-----7-----7-----7---7-7-7-----7-----7---0-12-15----15-12-0-11-14----14-11--|
E|----0-0---0-0---0-0---0-0---0-------0-0---0-0---0------------------------------------|


Play Riff F Pt.1 - 1x
Play Riff F Pt.2 - 1x


|Riff F Pt.3
||Guitar 1
e|--------------------------------------------------------------------------------------------|
B|--------------------------------------------------------------------------------------------|
G|--------------------------------------------------------------------------------------------|
D|------------------------------------------------------------------------9------------8------|
A|----------14---------------13--------------10-------------9----0-0-7-10---10-7-0-6-9---9-6--|
E|--0-12-15----15-12-0-11-14----14-11-0-8-11----11-8-0-7-10---10------------------------------|
||
||Guitar 2
e|--------------------------------------------------------------------------------------------|
B|--------------------------------------------------------------------------------------------|
G|--------------------------------------------------------------------------------------------|
D|------------------------------------------------------------------------9------------8------|
A|----------14---------------13--------------10-------------9----0-0-7-10---10-7-0-6-9---9-6--|
E|--0-12-15----15-12-0-11-14----14-11-0-8-11----11-8-0-7-10---10------------------------------|


|Riff G ***Read Note
||Guitar 1
e|-------------------------------------------------------------------------------------------------------------------------|
B|-------------------------------------------------------------------------------------------------------------------------|
G|--5/7-7-----7---5--5-----5-----4h5-5-----5---4--4-----4-----4h5-5-----5---4--4-----4-----2--2-----2-----5--5---4--4---5--|
D|--5/7-7-----7---5--5-----5-----5---5-----5---5--5-----5-----5---5-----5---5--5-----5-----3--3-----3-----5--5---5--5---5--|
A|--------0-0---0------0-0---0-0-------------------------------------------------------------------------------------------|
E|-------------------------------------3-3---3------3-3---3-0-------0-0---0------0-0---0-0------1-1---1-3------3------0----|
||
||Guitar 2
e|-------------------------------------------------------------------------------------------------------------------------|
B|-------------------------------------------------------------------------------------------------------------------------|
G|--5/7-7-----7---5--5-----5-----4h5-5-----5---4--4-----4-----4h5-5-----5---4--4-----4-----2--2-----2-----5--5---4--4---5--|
D|--5/7-7-----7---5--5-----5-----5---5-----5---5--5-----5-----5---5-----5---5--5-----5-----3--3-----3-----5--5---5--5---5--|
A|--------0-0---0------0-0---0-0-------------------------------------------------------------------------------------------|
E|-------------------------------------3-3---3------3-3---3-0-------0-0---0------0-0---0-0------1-1---1-3------3------0----|


***Riff G Note:
Guitar 2 Only plays riff twice, then plays solo


|Solo A (Corey)
||Guitar 1
e|---------------------------------------------------------------------/8--8---8-\7--7/12--12~~---------|
B|--------------5-3-----------------------6-5-----------6-5--------5-6/10--10--10\8--8/13--13~~----15f--|
G|--9\4-4--5--5------5--4--5-4--------4-7------7-5-7-5-------7-5-7--------------------------------------|
D|------------------------------7-5-7------------------------------------------------------------x------|
A|------------------------------------------------------------------------------------------------------|
E|------------------------------------------------------------------------------------------------------|
||
||Guitar 1 (continued)
e|-------------------------------------------------------------------------------------------------|
B|--15b-15--15--15--15--15-15-15-15-15-15r-15p13-15--13-13-15p13p12h13p12----12--------------------|
G|------------------------------------------------------------------------14----14p12-h14/17-14~~--|
D|-------------------------------------------------------------------------------------------------|
A|-------------------------------------------------------------------------------------------------|
E|-------------------------------------------------------------------------------------------------|
||
||Guitar 1 (continued)
e|--15--15-15-15--15\13-13-13\8--8--8--8--8-\7--7\------5-12p8---------8-17p12-------------12-10-------------|
B|--17--17-17-17--17\15-15-15\10-10-10-10-10\8--8\----6--------10---10---------13----------13-12--13\12--13--|
G|--------------------------------------------------7-------------9---------------14--------------14\12--14--|
D|-----------------------------------------------------------------------------------------------------------|
A|-----------------------------------------------------------------------------------12-14-------------------|
E|-----------------------------------------------------------------------------------------------------------|


|Solo B (Matt)
||Guitar 2
e|-----17--------17-------17-20-17-20-22-20-17-------20-17-------20-17-18-17-19-17-20-17--|
B|--12-----20f20----20f20----------------------20-17-------20-17--------------------------|
G|----------------------------------------------------------------------------------------|
D|----------------------------------------------------------------------------------------|
A|----------------------------------------------------------------------------------------|
E|----------------------------------------------------------------------------------------|
||
||Guitar 2 (continued)
e|-----------------------------------------------------------------------------------|
B|--20p17-20p17--20p17-20p17---------------------------------------------------------|
G|---------------------------19-17-19-17--19f--19~~-17~~----17----17\16----16\14-----|
D|-------------------------------------------------------19----19-------17-------15--|
A|-----------------------------------------------------------------------------------|
E|-----------------------------------------------------------------------------------|
||
||Guitar 2 (continued)
e|-----------------------------------------------------------------------------------------|
B|-----------------------------------------------------------------------------------------|
G|--14\12----12\10----10-10~~-10\9-9-9--10-9h10p9------------------------------------------|
D|--------14-------12-----------------------------12--10----------9------------------------|
A|--------------------------------------------------------------------------------8-10-12--|
E|--------------------------------------------------------8-10-12---12-10-8-10-12----------|
||
||Guitar 2 (continued)
e|-----------------------------------------------------------------------------10----------------10-12-13--|
B|------------------------------------------10---------------10-12-13-10-12-13----13-12-10-12-13-----------|
G|----------9----------------------------------------------------------------------------------------------|
D|--------------------------9-10-12-9-10-12----12-10-9-10-12-----------------------------------------------|
A|--8-10-12---12-10-8-10-12--------------------------------------------------------------------------------|
E|---------------------------------------------------------------------------------------------------------|
||
||Guitar 2 (continued)
e|-------13-12-10------------12-10-8-----------10-8-7----------------|
B|----------------13-12-10~~---------12-10------------10-8-----------|
G|-----------------------------------------10--------------9~~-10~~--|
D|--x--x-------------------------------------------------------------|
A|--x--x-------------------------------------------------------------|
E|-------------------------------------------------------------------|


Play Riff F Pt.1 - 1x
Play Riff F Pt.2 - 1x
Play Riff F Pt.1 - 1x
Play Riff F Pt.2 - 1x
Play Riff F Pt.1 - 1x
Play Riff A - 1x
Play Riff B - 1x
Play Riff A - 1x
Play Riff C - 1x
Play Riff D - 2x
Suggest correction
comments
print report bad tab
30 comments total. Showing first comments.
0 reply
_RATM_ 47 wrote on November 17 2006, 04:22 pm

great job...better than the others \m/thanks\m/

0 reply
shugo449 530 wrote on November 21 2006, 06:18 pm

the best... a lot like the one in guitar world, but not it... 5*

0 reply
ALonelyChord 10 wrote on November 21 2006, 07:55 pm

Best by far. Great tab!

guest
You may want to rate the tab now too:
select rating
Wanna post a correction for this tab? Suggest correction