Oops, an error
Loading. Please wait.

Forsake Not The Dream Tab

version 2
version 2

Whole song

1,082 views 1 this week
no commentswrite comment
1 2 3 4 5
please rate
add to favorites
launch autoscroll
font size
0
reset
how to read this tab
guitar tuner
Autoscroll
slow
fast
+/-
esc
set tempo
stop
Help us to improve Ultimate-Guitar.com Take our survey!
×
Author
Difficulty
Tuning
advanced
C# G# C# F# A# D#
Trivium
In Waves
2011

eb|----------------------------------------------------------|
bb|----------------------------------------------------------|
gb|-7-7-7-7****7-7-7-7****10-10-10-10-9999--33333333-5555555-|
Db|--------****-------****------------------33333333-5555555-|
Ab|-5-5-5-5****5-5-5-5****8--8--8--8--7777--11111111-3333333-|
Db|----------------------------------------------------------|

eb|--------------------------------------------------------------------|
bb|--------------------------------------------------------------------|
gb|-10101010****10-10-10-10-****14-14-14-14--12-12-12-12--666666-88888-|
Db|---------****------------****---------------------------------------|
Ab|-8-8-8-8-****8--8--8--8--****12-12-12-12--10-10-10-10--444444-66666-|
Db|--------------------------------------------------------------------|

eb|------------------------------|
bb|------------------------------|
gb|-/10-9------/10-9-12--10-9----|
Db|-------10~-----------------12-|
Ab|------------------------------|
Db|------------------------------|

eb|--------------------------------------------------------------------------|
bb|--------------------------------------------------------------------------|
gb|--------------------------------------------------------------------------|
Db|-12-----8-------10-----8-----10---12--15-------12-------14-------12-------|
Ab|--------------------------------------------------------------------------|
Db|----8-8-----8-8----8-8---8-8----8--------12-12----12-12----12-12----12-12-|

eb|----------------------------------------------------------|
bb|----------------------------------------------------------|
gb|----------------------------------------------------------|
Db|-14----15---19------15--------17--------15-------17----19-|
Ab|----------------------------------------------------------|
Db|----12--------15-15----15-15------15-15----15-15----15----|

eb|-----------------------------------------|
bb|-----------------------------------------|
gb|-----------------------------------------|
Db|-15-------14--------12---12-----10-----8-|
Ab|-----------------------------------------|
Db|----12-12-----12-12---------8-8----8-8---|

eb|-----5-----3-------------------------5-----3-------------0h7-|
bb|----------------6-----5------6------------------6----5-7-----|
gb|-3-3--3-3---3-3---3-3----3-3-----3-3--3-3---3-3--------------|
Db|-------------------------------------------------------------|
Ab|-------------------------------------------------------------|
Db|-------------------------------------------------------------|

eb|-----5-----------------------------------------------------------8---8---|
bb|-----------8------6-----5-----6---10---10----8-----8----6---6------5---5-|
gb|-7-7---7-7---7-7----7-7---7-7--------7----7-----9----9----5---5----------|
Db|-------------------------------------------------------------------------|
Ab|-------------------------------------------------------------------------|
Db|-------------------------------------------------------------------------|
Suggest correction
Give kudos to tab author, rate the tab!
1 2 3 4 5
comments
print report bad tab
guest
You may want to rate the tab now too:
select rating
Please do not post tabs as comments. Select "correction" instead!