Oops, an error
Loading. Please wait.

Fugue A Revelation tab

version 2
version 2

Whole song

Interactive

by Trivium
13,600 views 9 this week
10 commentsread comments
1 2 3 4 5
x 19
add to favorites
×
Save as Personal and add changes to this tab that will be seen only by you. Learn more ›
×
You can save this tab as Personal to edit and correct it or add notes. All changes will be seen only by you. Learn more »
launch autoscroll
font size
0
reset
how to read this tab
guitar tuner
edit
Autoscroll
slow
fast
+/-
esc
set tempo
stop
Author
Difficulty
intermediate
Fugue - Trivium
Standard tuning
from their demo


Riff A
|------------------|-------------------------------|-----------------|
|------------------|-------------------------------|-----------------|
|------------------|-------------------------------|-----------------|
|-5---5-----4---5--|-------------------------------|-5---5-----4---5-|
|-7---7-----5---7--|-------------------------------|-7---7-----5---7-|
|---0---0-0---0----|-0--0--0-0-0---0-0-0---0-0-0---|---0---0-0---0---|
    .   . .   .      .  .  . . .   . . .   . . .       .   . .   .
|-----------------|------------------|-------------------------------|
|-----------------|------------------|-------------------------------|
|-----------------|------------------|-------------------------------|
|-----------------|-5---5-----4---5--|-------------------------------|
|-----------------|-7---7-----5---7--|-------------------------------|
|-0-0-3-7-8-5-7-3-|---0---0-0---0----|-0--0--0-0-0---0-0-0---0-0-0---|
  .                   .   . .   .      .  .  . . .   . . .   . . .
|-------|----------|
|-------|----------|
|-------|----------|
|-5-----|--9----9--|
|-7-----|-10----9--|
|-8-----|-10---10--|

Riff B
|---|--------------------------------|----------------------------------|
|---|--------------------------------|----------------------------------|
|---|--------------------------------|----------------------------------|
|---|--------------------------------|-------------------------9-7------|
|---|---7---9-------7---9---10-9-7---|---9---10--------9---10------10---|
|-0-|-0---0---0-0-0---0---0--------8-|-8---8----8-8-8----8----8-------3-|

|--------------------------------|-----------------------------------|
|--------------------------------|-----------------------------------|
|--------------------------------|-----------------------------------|
|------------------------7-5-4---|-------------------------10-9-7----|
|---5---7-------5---7------------|---9---10---9---10---9-------------|
|-3---3---3-3-3---3---3--------7-|-7---7----7---7----7---7--------0--|

Riff C
|---|-------|-------|-------|-----------|
|---|-------|-------|-------|-----------|
|---|-------|-------|-------|-----------|
|---|-------|-5-----|-7-----|-10---12---|
|-2-|-------|-x-----|-x-----|--x----x---|
|-0-|-------|-3-----|-5-----|--8---10---|

Verse 1
|-------------------|-------------------|----------------|---------------|
|-------------------|-------------------|----------------|---------------|
|-11-11----11-11----|-11-11----11-11----|-12-12---12-12--|-7--7----7--7--|
|--9--9-----9--9----|--9--9-----9--9----|-10-10---10-10--|-7--7----7--7--|
|--7--7-----7--7----|--7--7-----7--7----|--7--7----7--7--|-9--9----9--9--|
|--0--0-----0--0----|--0--0-----0--0----|--0--0----0--0--|-0--0----0--0--|

|-------------------|-------------------|----------------|--------------|
|-------------------|-------------------|----------------|--------------|
|-11-11----11-11----|-11-11----11-11----|-12-12---12-12--|-7--7---------|
|--9--9-----9--9----|--9--9-----9--9----|-10-10---10-10--|-7--7---------|
|--7--7-----7--7----|--7--7-----7--7----|--7--7----7--7--|-9--9--12//0--|
|--0--0-----0--0----|--0--0-----0--0----|--0--0----0--0--|-0--0--12//0--|

|------------|----------|---------|-------------|--------------|----------|
|------------|----------|---------|-------------|--------------|----------|
|------------|----------|---------|-------------|--------------|----------|
|------------|----------|-5-------|-7---5p4-----|--------------|----------|
|-2-------2--|----------|-3-------|-5-------5-2-|-2---------2--|----------|
|-0---0-0-0--|----------|---------|-------------|-0-----0-0-0--|----------|

|---------|-----------|------------------|------------------|
|---------|-----------|------------------|------------------|
|---------|-----------|-11-11----11-11---|-11-11----11-11---|
|-5-------|--9----9---|--9--9-----9--9---|--9--9-----9--9---|
|-7-------|-10----9---|--7--7-----7--7---|--7--7-----7--7---|
|-8-------|-10---10---|--0--0-----0--0---|--0--0-----0--0---|

|------------------|---------|-------------------------------------|
|------------------|---------|-------------------------------------|
|-12-12----12-12---|-7---7---|-11-11----11-11---|-11-11----11-11---|
|-10-10----10-10---|-7---7---|--9--9-----9--9---|--9--9-----9--9---|
|--7--7-----7--7---|-9---9---|--7--7-----7--7---|--7--7-----7--7---|
|--0--0-----0--0---|-0---0---|--0--0-----0--0---|--0--0-----0--0---|

|------------------|----------------|------------|---------|---------|
|------------------|----------------|------------|---------|---------|
|-12-12----12-12---|-7---7----------|------------|---------|---------|
|-10-10----10-10---|-7---7----------|------------|---------|-5-------|
|--7--7-----7--7---|-9---9---12//0--|-2-------2--|---------|-3-------|
|--0--0-----0--0---|-0---0---12//0--|-0---0-0-0--|---------|---------|

|-----------------|-------------|----------|------|----------|
|-----------------|-------------|----------|------|----------|
|-----------------|-------------|----------|------|----------|
|-7------5p4------|-------------|----------|-5----|--9---9---|
|-5----------5-2--|-2--------2--|----------|-7----|-10---9---|
|-----------------|-0----0-0-0--|----------|-8----|-10--10---|

Pre-Chorus
|-----------------|--------------------|-----------------|-----------------|
|-----------------|--------------------|-----------------|-----------------|
|-----------------|--------------------|-----------------|-----------------|
|-----------------|--------------------|-----------------|-----------------|
|-----7---9-------|-7---9---10-9-7--2--|-----------------|-----------------|
|-0-0---0---0-0-0-|---0---0---------0--|--0-0-0-0-0-0-0--|-3h7-0-0-5h8-5h7-|

|-----------------|------------------|----------------|-------------------|
|-----------------|------------------|----------------|-------------------|
|-----------------|------------------|----------------|-------------------|
|-----------------|------------------|----------------|----------9-7------|
|-----7---9-------|-7---9---10-9-7---|---9---10-------|-9---10-------10---|
|-0-0---0---0-0-0-|---0---0--------8-|-8---8----8-8-8-|---8----8--------3-|

|---------------|-----------------|---------------|
|---------------|-----------------|---------------|
|---------------|-----------------|---------------|
|---------------|---------7-5-4-5-|-5-5-5-5-5-5-5-|
|---5---7-------|-5---7---------7-|-7-7-7-7-7-7-7-|
|-3---3---3-3-3-|---3---3-------8-|-8-8-8-8-8-8-8-|

Chorus

|---------|---------|----------|---------|--------|--------|-----------|
|---------|---------|----------|---------|--------|--------|-----------|
|---------|---------|-5---5-5--|---------|--------|--------|-----------|
|-2h4-----|---------|-5---4h5--|---------|-5---7--|--------|-7--10-10--|
|-2-2-----|---------|-3---3-3--|---------|-5---5--|--------|-7---7--7--|
|-0-0-----|---------|----------|---------|-3---3--|--------|-5---5--5--|

|---------|------|--------|-----------|--------|----------|----------|
|---------|------|--------|-----------|--------|----------|----------|
|---------|------|--------|--5--5-5---|--------|----------|----------|
|-----9---|-2h4--|--------|--5--4h5---|--------|--5----7--|----------|
|-----7---|-2-2--|--------|--3--3-3---|--------|--5----5--|----------|
|-----5---|-0-0--|--------|-----------|--------|--3----3--|----------|

|-----------|--------|
|-----------|--------|
|-----------|--------|
|-7--10-10--|----9---|
|-7---7--7--|----7---|
|-5---5--5--|----5---|

Breakdown

|-----------------|-----------------|--------------------|-------------------------|
|-----------------|-----------------|--------------------|-------------------------|
|-----------------|-----------------|--------------------|-------------------------|
|-----------------|-----------------|--------------------|-------------------------|
|-----5h7---5h7---|-5h7---5h7---5h7-|------7h10---7h10---|-5h10---5h10---5h10------|
|-0-0-----0-----0-|-----0-----0-----|--0-0------0------0-|------0------0-----------|

|-------------------|--------------------|-----------------|
|-------------------|--------------------|-----------------|
|-------------------|--------------------|-----------------|
|-------------------|--------------------|-----------------|
|-----7h12---7h12---|-7h12---7h12---7h12-|-----6h9---6h9---|
|-8-8------8------8-|------8------8------|-7-7-----7-----7-|

|-----------------|
|-----------------|
|-----------------|
|-----------------|
|-6h9---6h9---6h9-|
|-----7-----7-----|

Solo
                                       vvvvvvvvvvvvvvvv
|-----------|-----------------------14h15-|-------------|
|-----------|------------------14h16------|-------------|
|-----------|-------------14h16-----------|-------------|
|------7h9--|--------14h17----------------|-------------|
|-7h10------|-----------------------------|-------------|
|-----------|-----------------------------|-------------|

|-19-18-17---------------------------------------------------|------------|
|---------20-19-17-------------------------------------------|------------|
|-----------------20-19-17-----------------------------------|------------|
|-------------------------20-19-17---------------------------|------------|
|---------------------------------20-19-17-15-14-------------|--9---10----|
|------------------------------------------------10-12--12---|------------|
                                         vvvvvvvvvvvvvvvvvv
|-----------------|------------------|-----------|---------|----------|
|-----------------|------------------|-12--------|---------|-/17---17-|
|-----------------|------------------|-----------|---------|----------|
|------7-9--------|-10-9-7-----------|-----------|---------|----------|
|-9-10-----10-7---|--------10--7--5--|-----------|---------|----------|
|-----------------|------------------|-----------|---------|----------|

|------------------|---------------|----------|-21-19-18-------------------|
|-19--20--19-17----|--------15/18--|-20--19---|---------21-19-18-----------|
|--------------17--|----16---------|----------|-----------------21-19-24---|
|------------------|---------------|----------|----------------------------|
|------------------|---------------|----------|----------------------------|
|------------------|---------------|----------|----------------------------|

|-19-17-15-------------------|---------------------------------------------|
|---------19-17-15-----------|------------------------------------------14-|
|-----------------20-18-23---|----------------------------------14-15-17---|
|----------------------------|-----------------12-14-15-14-15-17-----------|
|----------------------------|---------12-14-15----------------------------|
|----------------------------|-12-14-15------------------------------------|
                         vvvvvv
|---------------15-17-18-19----|-17---15---|-14---15---|
|-15-17-15-17-18---------------|-----------|-----------|
|------------------------------|-----------|-----------|
|------------------------------|-----------|-----------|
|------------------------------|-----------|-----------|
|------------------------------|-----------|-----------|
                                                                    vvvvvvv
|------------------------------------------|---------------12-14-15-15-----|
|---------------------------------------10-|-12-14-12-14-15----------------|
|-------------------------------10-12-14---|-------------------------------|
|---------------9-10-12-10-12-14-----------|-------------------------------|
|--------9-10-12---------------------------|-------------------------------|
|-9-10-12----------------------------------|-------------------------------|

|-15-14-12------------------------------------|------------------------|
|---------15-14-12----------------------------|------------------------|
|-----------------15-14-12--------------------|------------------------|
|-------------------------15-14-12-14-12-10---|------------------------|
|------------------------------------------14-|-12-10------------------|
|---------------------------------------------|-------14-12-10---12----|
                                                                       vvvvv
|---------------------------------------------|---------------15-17-18-19--|
|------------------------------------------14-|-15-17-15-17-18-------------|
|----------------------------------14-15-17---|----------------------------|
|-----------------12-14-15-14-15-17-----------|----------------------------|
|---------12-14-15----------------------------|----------------------------|
|-12-14-15------------------------------------|----------------------------|
              tr~~~~~~~~
|-17---15---|-23(24)----|-------------------------------------------|
|-----------|-----------|----------------------------------------10-|
|-----------|-----------|-------------------------------10-12-14----|
|-----------|-----------|---------------9-10-12-10-12-14------------|
|-----------|-----------|--------9-10-12----------------------------|
|-----------|-----------|-9-10-12-----------------------------------|
                         vvvvvv                              vvvvvv
|---------------12-14-15-15----|-15--14--12--|---10--9--7--|-24----|
|-12-14-12-14-15---------------|-17--15--14--|---12--10-9--|-------|
|------------------------------|-------------|-------------|-------|
|------------------------------|-------------|-------------|-------|
|------------------------------|-------------|-------------|-------|
|------------------------------|-------------|-------------|-------|

i think theres a bit missing from the pre-chorus but i cant be bothered cahnging it now 
12 30 and ive been up all night tabbing this out soo plzzz comment or rate

            
            
Suggest correction
Creating personal tab
Creating personal tab
You can edit any tab online and save it as your Personal.

You can edit, replace or remove any tab part or add personal notes – all changes will be seen only by you.

Personal tabs can be accessed anytime from any device, even offline.
Learn more »
comments
print report bad tab
10 comments total. Showing first comments.
+1 reply
ardenrocks 10 Jul 15, 2006 01:33 AM

Awsome tab man!not completely accurate but still about 95% correct!

+1 reply
thrice_1989 197 Aug 23, 2006 04:54 PM

goood job mann

+1 reply
zackvalo16 119 Feb 01, 2007 10:28 AM

awesome work good job

guest
You may want to rate the tab now too:
select rating
Wanna post a correction for this tab? Suggest correction