Oops, an error
Loading. Please wait.

He Who Spawned The Furies Tab

version 1
version 1

Whole song

Interactive

7,556 views 3 this week
no commentswrite comment
1 2 3 4 5
excellent!
x 9
add to favorites
launch autoscroll
font size
0
reset
how to read this tab
guitar tuner
Tab Pro tools
  • play this tab
  • loop segment
  • change instrument
  • show fretboard
  • metronome
×
Best way to learn
"He Who Spawned The Furies"
Autoscroll
slow
fast
+/-
esc
set tempo
stop
Contributor
Difficulty
advanced
Band:Trivium
Song:He who spawned the furies
Album:Shogun
This song is played on a 7 string guitar (B,E,A,D,G,B,E) low to high

PLEASE RATE :)

Update 1: "20:20 Friday, 17th August 2010"
Verse 1, verse 4, verse 5 were updated
Solo rhythm was added

PH: pinch harmonic
BU: bend up
BR: bend return
PM: palm mute
h:  hammer on
p:  pull off
/:  slide up
\:  slide down
T:  tapping
WBH: raise wammy bar pitch
WBL: lower wammy bar pitch
TR: tremelo pick

guitar 1 (corey beaulieu)
guitar 2 (matt heafy)

Intro/chorus
Guitar 2 X2   
      PM----- -------- -----       
E||------------------------------------|-------------------------|
B||------------------------------------|-------------------------|
G||------------------------------------|-------------------------|
D||------------------------------------|-5-555-7-777-4-444-4-444-|
A||-2--------2--------9--------4--5--7-|-5-555-5-555-4-444-4-444-|
E||-2--------2--------6--------6--7--9-|-3-333-3-333-2-222-2-222-|
B||-0-0--000-0-0--000---0--000---------|-------------------------| 


Guitar 1
E||-----------------|---------------------------------------------------|
B||-----------------|-12-12-12-12-12-12-11-11-11-11-11-11---------------|
G||---11-BU(12BR11)-|-------------------------------------11-BU(12BR11)-|
D||-----------------|---------------------------------------------------|
A||-----------------|---------------------------------------------------|
E||-----------------|---------------------------------------------------|
B||-----------------|---------------------------------------------------|


verse 1   (the afterbirth has barely dried...)
Both guitars X4
E||-------------------------------------|
B||-------------------------------------|
G||-------------------------------------|
D||-9--9-9-9\7--7-7\5-5--5-5\3-3--3-3-3-|
A||-------------------------------------|
E||-7--7-7-7\5--5-5\3-3--3-3\1-1--1-1-1-|
B||-------------------------------------|


verse 2        (devour...)
Both guitars X4
             PM---------
E||----------------------------------------|
B||----------------------------------------|
G||----------------------------------------|
D||-12-X-12\-------------8-8--8-X-8-8--8-X-|
A||-12-X-12\-------------8-8--8-X-8-8--8-X-|
E||-10-X-10\-------------6-6--6-X-6-6--6-X-|
B||----------0-0-0-0-0-0-------------------|


verse 3      (swallowed his children whole...)
Both guitars
E||--------------------------------------|
B||--------------------------------------|
G||--------------------------------------|
D||--------------------------------------|
A||--5-5-5--5-5-5-5--5-4-4-4--4-4-4-4--4-|
E||--5-5-5--5-5-5-5--5-4-4-4--4-4-4-4--4-|
B||--3-3-3--3-3-3-3--3-2-2-2--2-2-2-2--2-|


Middle section  
Both guitars X4
E||----------------------------------------|
B||----------------------------------------|
G||----------------------------------------|
D||--3----3--------3----3--------3----3----|
A||--5-55-4-444444-5-55-4-444444-5-55-4-44-|
E||----------------------------------------|
B||----------------------------------------|


verse 4        (he who spawned the furies...)
Both guitars X4
E||------------------------|
B||------------------------|
G||------------------------|
D||------------------------|
A||------------------------|
E||--555-4---555-4---555-4-|
B||--333-2---333-2---333-2-|


solo 1
guitar 2
(sweep picking)
E||----------6-9--9p6-----------------9-12--12p9--------|
B||--------8----------8------------11------------11-----|
G||-/6~~-6--------------6~~-/9~~-9------------------9~~-|
D||-----------------------------------------------------|
A||-----------------------------------------------------|
E||-----------------------------------------------------|
B||-----------------------------------------------------|


(sweep picking cont')
E||------6-9p6--------9-12p9--------7-10p7--------9-|
B||----8-------8---11--------11---9--------9---11---|
G||--6-----------9--------------7------------9------|
D||-------------------------------------------------|
A||-------------------------------------------------|
E||-------------------------------------------------|
B||-------------------------------------------------|


E||--15---14---13---14---15---14\---|
B||---------------------------------|
G||---------------------------------|
D||---------------------------------|
A||---------------------------------|
E||---------------------------------|
B||---------------------------------|


Solo 1 rhythm
Guitar 1 x4
E||------------------------|
B||------------------------|
G||------------------------|
D||------------------------|
A||------------------------|
E||------------------------|
B||--333-2---333-2---333-2-|


(tapping)
      T       T       T       T       T       T        T       T
E||--15p12p9-15p12p9-15p12p9------------------------------------------|
B||--------------------------14p11p9-14p11p9-14p11p9------------------|
G||---------------------------------------------------14p10p9-14p10p9-|
D||-------------------------------------------------------------------| X4
A||-------------------------------------------------------------------|
E||-------------------------------------------------------------------|
B||-------------------------------------------------------------------|


E||----------19\/(19WBH)~~~~~-|
B||-14/17~~-------------------|
G||---------------------------|
D||---------------------------|
A||---------------------------|
E||---------------------------|
B||---------------------------|


Solo 1 (tapping rhythm)
Guitar 1
     PM-----    -------    -------     -------
E||-----------------------------------------------|
B||-----------------------------------------------|
G||-----------------------------------------------|
D||-----------------------------------------------|
A||----------9\---------8\---------11\---------9\-|
E||----------7\---------6\----------9\---------7\-|
B||--0-000-0----0-000-0----0-000-0-----0-000-0----|


solo 2 (wah wah pedal)
guitar 1
    TR---------------------------    
E||-------------------------------|
B||-14h15---14h15---14h15---14h15-|
G||-------------------------------|
D||-------------------------------|
A||-------------------------------|
E||-------------------------------|
B||-------------------------------|

                                 
E||--17--16--14--16--14--13--14--13---------|
B||----------------------------------15--14-|
G||-----------------------------------------|
D||-----------------------------------------|
A||-----------------------------------------|
E||-----------------------------------------|
B||-----------------------------------------|


(tremelo)
     TR--------------------
E||--------------------------|
B||-----------------15---14--|
G||------------12------------|
D||--12---13-----------------|
A||--------------------------|
E||--------------------------|
B||--------------------------|


Solo 2 rhythm
Guitar 2 x4
E||------------------------|
B||------------------------|
G||------------------------|
D||------------------------|
A||------------------------|
E||------------------------|
B||--333-2---333-2---333-2-|


verse 5         (Wreathed with serpents...)
Both guitars X2
     PM-----    -------    -------     -------
E||-----------------------------------------------|
B||-----------------------------------------------|
G||-----------------------------------------------|
D||-----------------------------------------------|
A||----------9\---------8\---------11\---------9\-|
E||----------7\---------6\----------9\---------7\-|
B||--0-000-0----0-000-0----0-000-0-----0-000-0----|


verse 6         (criminals!...)
Both guitars X4
       PM-- ------- ----- ------- ----- ----
E||------------------------------------------|
B||------------------------------------------|
G||------------------------------------------|
D||------------------------------------------|
A||--2-----2-------2-----2-------2-----2-----|
E||--2-----2-------2-----2-------2-----2-----|
B||--0-000-0-000---0-000-0-000---0-000-0-000-|


song played in order:
intro/chorus
verse 1
verse 2
verse 3
intro/chorus
verse 1
verse 2
verse 3
intro/chorus
middle section
verse 4
solo
verse 5
verse 6
intro/chorus X2
verse 6

Thats the full song. Enjoy :D
comments
print report bad tab
I want to post or [tab]
guest
You may want to rate the tab now too:
select rating
Please do not post tabs as comments. Select "correction" instead!