Oops, an error
Loading. Please wait.

If I Could Collapse The Masses Tab

version 2
version 2

Whole song

1,121 views 1 this week
4 commentsread comments
1 2 3 4 5
accurate
x 3
add to favorites
launch autoscroll
font size
0
reset
how to read this tab
guitar tuner
Autoscroll
slow
fast
+/-
esc
set tempo
stop
Help us to improve Ultimate-Guitar.com Take our survey!
×
Author
Difficulty
intermediate
taber:time zone
Song:If i could collapse the masses
Band: Trivium
Tuning: EADGBE

this tab is in order so you wont get confused, listen to the song
intro
E-------------------------------------------|
B-------------------------------------------|4X
G-------------------------------------------|
D-------------------------------------------|
A-----7--9---10--6--------------------------|
E--00--00--00--00---------------------------|

E-------------------------------------------|
B-------------------------------------------|2X
G-------------------------------------------|
D-------------------------------------------|
A-----7---9--10--6---7---9---12--10---------|
E--00--00--00--00--00--00--00--00-----------|

verse
E-------------------------------------------|
B-------------------------------------------|4x
G-------------------------------------------|
D-------------------------------------------|
A-9--7--9--7--9-9/10------------------------|
E---0--0--0--0------------------------------|

E-------------------------------------------|
B-----------10--8---------------------------|
G--10---8------------7--9-------------------|
D-----------7---5---------------------------|
A--7----5------------5--7-------------------|
E-------------------------------------------|

E-------------------------------------------|
B-------------------------------------------|2x
G-------------------------------------------|
D-------------------------------------------|
A----7---9---10--6---7---9---12--10---------|
E--00--00--00--00--00--00--00--00-----------|


E-------------------------------------------|
B-------------------------------------------|4x
G-------------------------------------------|
D-------------------------------------------|
A--9--7--9--7--9-9/10-----------------------|
E----0--0--0--------------------------------|

E-------------------------------------------|
B-----------10--8---------------------------|
G--10---8------------7--9-------------------|
D-----------7---5---------------------------|
A--7----5------------5--7-------------------|
E-------------------------------------------|

this verse is a little different
E-------------------------------------------|
B-------------------------------------------|
G-------------------------------------------|
D-------------------------------------------|
A--7--9--7--9--10-9--7--9--7--9--10-9-------|
E----0--0--0--0----0---0--0--0--0-----------|

E--------------------------------------------------|
B--------------------------------------------------|
G--------------------------------------------------|
D--------------------------------------------------|
A--7--9--7--9--10-9--777-999-1010-999-101010-1212--|
E----0--0--0--0------------------------------------|

chorus
E-------------------------------------------------------|
B-------------------------------------------------------|
G-------------------------------------------------------|
D-------------------------------------------------------|
A--2--7-5-3-2-2-3-5-7-5-5-3-2-3-5-2---7-5-3-2-3-5-3--2--|
E--0--7-5-3-2-2-3-5-7-5-5-3-2-3-5-2---7-5-3-2-3-5-3--2--|

verse 2 1:30
E------------------------------------------------|
B------------------------------------------------|2x
G------------------------------------------------|
D------------------------------------------------|
A----7---9---10--6---7---9---12--10--------------|
E--00--00--00--00--00--00--00--00----------------|

E-------------------------------------------------|
B-------------------------------------------------|4x
G-------------------------------------------------|
D-------------------------------------------------|
A--9--7--9--7--9-9/10-----------------------------|
E---0--0--0--0------------------------------------|

E-------------------------------------------------|
B----------10--8----------------------------------|
G--10---8----------7--9---------------------------|
D-----------7--5----------------------------------|
A--7----5----------5--7---------------------------|
E-------------------------------------------------|

E------------------------------------------------|
B------------------------------------------------|
G------------------------------------------------|
D------------------------------------------------|
A--7--9--7--9--10-9--7--9--7--9--10-9------------|
E----0--0--0--0-----0--0--0--0--0----------------|

E------------------------------------------------|
B------------------------------------------------|
G------------------------------------------------|
D------------------------------------------------|
A--7--9--7--9--10-9--777-999-1010-99-101010-1212-|
E---0--0--0--0-----------------------------------|

Go back to chorus

Bridge 2:22

  16x        8x     8x
E-------|-------|------------------------------|
B-------|-------|------------------------------|
G-------|-------|------------------------------|
D----9--|----12-|-----9------------------------|
A--00---|--oo---|--00--------------------------|
E--00---|--oo---|--00--------------------------|

E-----------------------------------------------------|
B-----------------------------------------------------|2x
G-------------------------------------------------17b-|
D-----------------------------------------------------|
A-----------------------------------------------------|
E--00-1-1-00-1-1-00-1-1-00-1-1-00-1-1-00-1-1-00-1-1---|

   16x     8x      8x
E-------|-------|------------------------------|
B-------|-------|------------------------------|
G-------|-------|------------------------------|
D-----9-|-----12|-----9------------------------|
A--00---|--00---|--00--------------------------|
E--00---|--00---|--00--------------------------|

  3:05
E-------------------------------------|
B-------------------------------------|3x
G-------------------------------------|
D-------------------------------------|
A-------10-6-9b-----------------------|
E--8-10-------------------------------|

  then
E-------------------------------------|
B-------------------------------------|
G-------------------------------------|
D-----------7-------------------------|
A--7-10-9-10--5-12-10-----------------|
E-------------------------------------|

 solo 3:22
E-----------------------------------------------|
B-----------------------------------------------|
G-----------------------------------------------|
D-----------------------------------------------|
A-----------------------------------------------|
E--20-19191919-20-19191919-20-19191919----------|

E----------------------------------------------|
B----------------------------------------------|
G----------------------------------------------|
D----------------------------------------------|
A--21-19191919-21-19191919-21-19191919---------|
E----------------------------------------------|

E-----------------------------------------------------------|
B-----------------------------------------------------------|
G-----------------------------------------------------------|
D---------------------------------------22-21-19-12-19b-----|
A--22-21212121-22-21212121-22-21212121----------------------|
E-----------------------------------------------------------|

E-----------------------------------------------------------|
B-----------------------------------------------------------|
G--21-22222222-21-22222222----------------------------------|
D-----------------------------------------------------------|
A-----------------------------------------------------------|
E-----------------------------------------------------------|

I thind this part is right
E----------------------------------------------|
B----------------------------------------------|2x
G--22-19-21-19-22-19-21-22-19-21-19-22-21-19---|
D----------------------------------------------|
A----------------------------------------------|
E----------------------------------------------|

E----------------------------------------------|
B----------------------------------------------|
G----------------------------------------------|
D----------------------------------------------|
A----------------------------------------------|
E----------------------------------------------|

E--------------------------------------------------------------|
B--17-19-20-19-17-17-19-20-19-17-17-19-20-19-17-17-19-20-19-17-|
G--------------------------------------------------------------|
D--------------------------------------------------------------|
A--------------------------------------------------------------|
E--------------------------------------------------------------|

E--202020-19-17-15-17b-----------------------|
B--------------------------------------------|
G--------------------------------------------|
D--------------------------------------------|
A--------------------------------------------|
E--------------------------------------------|

verse 3 3:38

E------------------------------------------|
B------------------------------------------|4x
G------------------------------------------|
D------------------------------------------|
A--9--7--9--7--9-9/10----------------------|
E---0--0--0--0-----------------------------|

E-------------------------------------------|
B----------10--8----------------------------|
G--10--8-----------7--9---------------------|
D----------7---5----------------------------|
A--7---5-----------5--7---------------------|
E-------------------------------------------|

E-------------------------------------------|
B-------------------------------------------|
G-------------------------------------------|
D-------------------------------------------|
A--7--9--7--9--10-9--7--9--7--9--10-9-------|
E----0--0--0--0-----0--0--0--0--0-----------|

E-------------------------------------------------|
B-------------------------------------------------|
G-------------------------------------------------|
D-------------------------------------------------|
A--7--9--7--9--9-10--777-999-1010-99-101010-1212--|
E---0--0--0--0------------------------------------|

E-----------------------------------------------------|
B-----------------------------------------------------|
G-----------------------------------------------------|
D-----------------------------------------------------|
A--2--7-5-3-2-2-3-5--7--5-3-2-3-5-2--7-5-3-2-3-5-3--2-|
E--0--7-5-3-2-2-3-5--7--5-3-2-3-5-0--7-5-3-2-3-5-3--2-|

ending
E--------------------------------------------|
B--------------------------------------------|
G--------------------------------------------|
D---9---9---9---9-9--------------------------|
A-00--00--00--0------------------------------|
E-00--00--00--0------------------------------|

thats all, if there is a part i got rong then just e mail me and I will fix it.
guitaristdave2006@hotmail.com
Suggest correction
Give kudos to tab author, rate the tab!
1 2 3 4 5
comments
print report bad tab
4 comments total. Showing first comments.
0 reply
Total_Guitar 10 wrote on April 26 2006, 06:06 am

I think this a really good tab, well structured and thought out.

But i think you have got one bit wrong.
This would be the bridge.

the part in question is the 17b on whatever string you said.

i do not think this is correct, i would say that the note is a pinch harmonic.
By the sounds of it i would say it is either the 3rd or 5th fret on the top string.

Just thought i would share this.

0 reply
MetalDisease 40 wrote on March 2 2007, 09:38 pm

gjdghjdgjdgf

0 reply
MetalDisease 40 wrote on March 2 2007, 09:39 pm

this isnt really a good tab IMO. the solo is ridiculous, the first part is kinda right, but why would you play it at the 20th fret? the verse is way off too.

guest
You may want to rate the tab now too:
select rating
Wanna post a correction for this tab? Suggest correction