Oops, an error
Loading. Please wait.

Ignition Tab

version 2
version 2

Whole song

10,440 views 12 this week
7 commentsread comments
1 2 3 4 5
accurate
x 5
add to favorites
launch autoscroll
font size
0
reset
how to read this tab
guitar tuner
Autoscroll
slow
fast
+/-
esc
set tempo
stop
Help us to improve Ultimate-Guitar.com Take our survey!
×
Author
Difficulty
advanced
artist = trivium
tabbed by = alex z
song = ignition
tunning = standard

legend

h = hammer on
p = pulloff
\ = slide down
/ = slide up
b = bend
r = release bend
T = tremelo
t = tapping

hey this is my first try at a trivium song so go easy i love this song and i have found 
the bridge coz no one has it

intro

--------------------------------------------------------------------------|
--------------------------------------------------------------------------|
--------------------------------------------------------------------------|
-8/9\8-6-8-6-5------------------------------------------------------------|
-8/9\8-6-8-6-5-----5-5-5-5-5-5-6--5-5-5-5-5-5-6--5-5-5-8--5-5-5-5-5-5-6---|
-6/6\4-6-4-3-3-----3-3-3-3-3-3-4--3-3-3-3-3-3-4--3-3-3-6--3-3-3-3-3-3-4---|
through intro

verse

--------------------------------------------------------------|
--------------------------------------------------------------|
--------------------------------------------------------------|
-2-----3---0---2---3/6--2-----3---0---------3h6p3-------------|
-------------------x--------------------2h5-------5-----------|
---0-0---0---0-----1/4----0-0---0---0h4-----------------------|x2

tehn this

-------------------------------------------------------------------------|
-------------------------------------------------------------------------|
-------------------------------------------------------------------------|
-------------------------------------------------------8/9\8-6-8-6-5-----|
-5-5-5-5-5-5-6--5-5-5-5-5-5-6--5-5-5-8--5-5-5-5-5-5-6--8/9\8-6-8-6-5-----|
-3-3-3-3-3-3-4--3-3-3-3-3-3-4--3-3-3-6--3-3-3-3-3-3-4--6/7\6-4-6-4-3-----|x2

then again

--------------------------------------------------------------|
--------------------------------------------------------------|
--------------------------------------------------------------|
-2-----3---0---2---3/6--2-----3---0---------3h6p3-------------|
-------------------x--------------------2h5-------5-----------|
---0-0---0---0-----1/4----0-0---0---0h4-----------------------|x2


this again
-------------------------------------------------------------------------|
-------------------------------------------------------------------------|
-------------------------------------------------------------------------|
-------------------------------------------------------8/9\8-6-8-6-5-----|
-5-5-5-5-5-5-6--5-5-5-5-5-5-6--5-5-5-8--5-5-5-5-5-5-6--8/9\8-6-8-6-5-----|
-3-3-3-3-3-3-4--3-3-3-3-3-3-4--3-3-3-6--3-3-3-3-3-3-4--6/7\6-4-6-4-3-----|x2


tehn this

--------------------------------------------------------------|
--------------------------------------------------------------|
--------------------------------------------------------------|
-2-----3---0---2---3/6--2-----3---0---------3h6p3-------------|
-------------------x--------------------2h5-------5-----------|
---0-0---0---0-----1/4----0-0---0---0h4-----------------------|x2


now pre chorus

--------------------------------------------------------------|
--------------------------------------------------------------|
------------------------------------------10\9----------------|
--------------------------------------------------------------|
-------------------------------------------8\7----------------|
-0-0-0--0-0-0--0-0-0--0-0-0--0-0-0--0-0-0---------------------|


--------------------------------------------------------------|
--------------------------------------------------------------|
--------------------------------------------------------------|
-------------------------------------------7\6----------------|
--------------------------------------------------------------|
-0-0-0--0-0-0--0-0-0--0-0-0--0-0-0--0-0-0--5\4----------------|


--------------------------------------------------------------|
--------------------------------------------------------------|
------------------------------------------10\9----------------|
--------------------------------------------------------------|
-------------------------------------------8\7----------------|
-0-0-0--0-0-0--0-0-0--0-0-0--0-0-0--0-0-0---------------------|

--------------------------------------------------------------|
--------------------------------------------------------------|
--------------------------------------------------------------|
---------------7\6---------------10\9-------------------------|
--------------------------------------------------------------|
-0-0-0--0-0-0--5\4--0-0-0--0-0-0--8\7-------------------------|x2 all of it


chorus

-----------------------------------------------------------------------|
-----------------------------------------------------------------------|
-------4-----4-----------4-----4-----9-x-x-9-x-x-9-x-x-9-x-x-9-x-x-9---|
-8-x-x-6-x-x-6-x-x-8-x-x-6-x-x-6-x-x-8-x-x-9-x-x-9-x-x-8-x-x-9-x-x-9---|
-6-x-x-6-x-x-6-x-x-6-x-x-6-x-x-6-x-x-7-x-x-7-x-x-7-x-x-7-x-x-7-x-x-7---|
-4-x-x-4-x-x-4-x-x-4-x-x-4-x-x-4-x-x-----------------------------------|

-----------------------------------------------------------------------|
-----------------------------------------------------------------------|
-------------------------------------------4-----4------------8b-------|
-6-x-x-6-x-x-6-x-x-5-x-x-5-x-x-5-x-x-8-x-x-6-x-x-6-x-x----5-8----------|
-7-x-x-7-x-x-7-x-x-6-x-x-6-x-x-6-x-x-6-x-x-6-x-x-6-x-x-/6--------------|
-9-x-x-9-x-x-9-x-x-3-x-x-3-x-x-3-x-x-4-x-x-4-x-x-4-x-x-----------------|x2

now bridge wooo


-----------------------------------------------------------------------|
-----------------------------------------------------------------------|
-----------------------------------------------------------------------|
-----------------------------------------------------------------------|
-4--------------6---------------7---------------3-------4--------------|
--4-444-444-444---4-444-444-444---4-444-444-444---3-333---3-333--------|

-----------------------------------------------------------------------|
-----------------------------------------------------------------------|
-----------------------------------------------------------------------|
-----------------------------------------------------------------------|
-6-------7-------3---4---6---7---7h8p7---7-----------------------------|
---3-333---3-333---0---0---0---0-------9---9-8-7-----------------------|

-----------------------------------------------------------------------|
-----------------------------------------------------------------------|
-----------------------------------------------------------------------|
-T------------T-T------------------------------------------------------|
-2------------2/5----------6\------------------------------------------|
---1111111111-----44444444---------------------------------------------|
whole thing 2 times

solo time hi 5

------------------------------------------------------------------------|
--------------------------------------------------------9h11h12-9h11h12-|
------------------------------------------8h9h11-8h9h11-----------------|
----------------------------8h9h11-8h9h11-------------------------------|
--------------7h9h11-7h9h11---------------------------------------------|
-7h9h11-7h9h11-----------------------------------------------------------|

--9h11h12-9h11h12/14p12p11----------------------------------------------|
---------------------------14p12p11-14p12p11----------------------------|
---------------------------------------------13p11p9-13p11p9------------|
------------------------------------------------------------------------|
------------------------------------------------------------------------|
------------------------------------------------------------------------|


--------------------------------------------------------------------------
--------------------------------------------------------------------------
--------------------------------------------------------------------------
-13p11p9-13p11p9----------------------------------------------------------
-----------------13p11p9-13p11p9------------------------------------------
---------------------------------12p11p9-12p11p9-12p11-11-11-11-12-9-9-9-9

very fast part

-------------------------------------------------------------------------|
-------------------------------------------------------------------------|
-------------------------------------------------------------------------|
----------------------------------------------11----------------11-13-14-|
----------11----------------11-13-14-11-13-14----14-13-11-13-14----------|
-11-12-14----14-12-11-12-14----------------------------------------------|

-------------------------------------------------------------------------|
----------------------------------------------12----------------12-14-16-|
----------11----------------11-13-15-11-13-15----15-13-11-13-15----------|
-11-13-14----14-13-11-13-14----------------------------------------------|
-------------------------------------------------------------------------|
-------------------------------------------------------------------------|

---------12----------------12-14-16-------
12-14-16----16-14-12-14-16---------------
-----------------------------------------
-------------------------------------------
------------------------------------------
-----------------------------------------



--t16p14p12--t16p14p12--t16p14p12--t16p14p12-----------
-------------------------------------------------------
-------------------------------------------------------
-------------------------------------------------------
-------------------------------------------------------
-------------------------------------------------------


-t19p14h16-t19p14h16-t19p14h16-t19p14h16---|
-------------------------------------------|
-------------------------------------------|
-------------------------------------------|
-------------------------------------------|
-------------------------------------------|

-t18p14h16-t18p14h16-t18p14h16-t18p14h16---|
-------------------------------------------|
-------------------------------------------|
-------------------------------------------|
-------------------------------------------|
-------------------------------------------|

now back to intro thing

-------------------------------------------------------------------------|
-------------------------------------------------------------------------|
-------------------------------------------------------------------------|
-------------------------------------------------------8/9\8-6-8-6-5-----|
-5-5-5-5-5-5-6--5-5-5-5-5-5-6--5-5-5-8--5-5-5-5-5-5-6--8/9\8-6-8-6-5-----|
-3-3-3-3-3-3-4--3-3-3-3-3-3-4--3-3-3-6--3-3-3-3-3-3-4--6/7\6-4-6-4-3-----|x2

then main verse

---------------------------------------------------------------|
---------------------------------------------------------------|
---------------------------------------------------------------|
-2-----3---0---2---3/6--2-----3---0---------3h6p3--------------|
-------------------x-x-----------------2h5-------5-------------|
---0-0---0---0-----1/4----0-0---0---0h4------------------------|

--------------------------------------------------------------|
--------------------------------------------------------------|
--------------------------------------------------------------|
-2-----3---0---2-----3/6--2-----3---0-------------------------|
---------------------x-x--------------2-----------------------|
---0-0---0---0-------1/4----0-0---0---0-----------------------|


then pre chorus again

--------------------------------------------------------------|
--------------------------------------------------------------|
------------------------------------------10\9----------------|
--------------------------------------------------------------|
-------------------------------------------8\7----------------|
-0-0-0--0-0-0--0-0-0--0-0-0--0-0-0--0-0-0---------------------|


--------------------------------------------------------------|
--------------------------------------------------------------|
--------------------------------------------------------------|
-------------------------------------------7\6----------------|
--------------------------------------------------------------|
-0-0-0--0-0-0--0-0-0--0-0-0--0-0-0--0-0-0--5\4----------------|


--------------------------------------------------------------|
--------------------------------------------------------------|
------------------------------------------10\9----------------|
--------------------------------------------------------------|
-------------------------------------------8\7----------------|
-0-0-0--0-0-0--0-0-0--0-0-0--0-0-0--0-0-0---------------------|

--------------------------------------------------------------|
--------------------------------------------------------------|
--------------------------------------------------------------|
---------------7\6---------------10\9-------------------------|
--------------------------------------------------------------|
-0-0-0--0-0-0--5\4--0-0-0--0-0-0--8\7-------------------------|x2 all of it

now chorus again

-----------------------------------------------------------------------|
-----------------------------------------------------------------------|
-------4-----4-----------4-----4-----9-x-x-9-x-x-9-x-x-9-x-x-9-x-x-9---|
-8-x-x-6-x-x-6-x-x-8-x-x-6-x-x-6-x-x-8-x-x-9-x-x-9-x-x-8-x-x-9-x-x-9---|
-6-x-x-6-x-x-6-x-x-6-x-x-6-x-x-6-x-x-7-x-x-7-x-x-7-x-x-7-x-x-7-x-x-7---|
-4-x-x-4-x-x-4-x-x-4-x-x-4-x-x-4-x-x-----------------------------------|

-----------------------------------------------------------------------|
-----------------------------------------------------------------------|
-------------------------------------------4-----4------------8b-------|
-6-x-x-6-x-x-6-x-x-5-x-x-5-x-x-5-x-x-8-x-x-6-x-x-6-x-x----5-8----------|
-7-x-x-7-x-x-7-x-x-6-x-x-6-x-x-6-x-x-6-x-x-6-x-x-6-x-x-/6--------------|
-9-x-x-9-x-x-9-x-x-3-x-x-3-x-x-3-x-x-4-x-x-4-x-x-4-x-x-----------------|x2


and this little picking thing if u really wanna play it

-----------11-------------------11-------------------------------|
--------12----12-9-----------12----12-9--------------------------|
-------------------8--------------------8------------------------|
-----6--------------------6--------------------------------------|
---6--------------------6----------------------------------------|
-4--------------------4------------------------------------------|

gets slower and slower


wellllllllll thats it hi 5 i think its right so yer peace out and go trivium i normally 
all parkway but this is my first trivium song

cya later \m/
Suggest correction
comments
print report bad tab
7 comments total. Showing first comments.
0 reply
Capt. Maxzmus 10 wrote on July 23 2007, 10:32 pm

What tuning is it in?

0 reply
alex z 291 wrote on July 24 2007, 05:13 am

o sorry dude its standard tuning

do u lyk it the tabs pretty sik i rekn

0 reply
xproxxx 70 wrote on July 26 2007, 09:45 pm

shit tab hjaj

guest
You may want to rate the tab now too:
select rating
Please do not post tabs as comments. Select "correction" instead!