Oops, an error
Loading. Please wait.

Inception Of The End Tab

version 1
version 1

Intro

Whole song

Interactive

995 views 1 this week
no commentswrite comment
1 2 3 4 5
please rate
add to favorites
launch autoscroll
font size
0
reset
how to read this tab
guitar tuner
Autoscroll
slow
fast
+/-
esc
set tempo
stop
Help us to improve Ultimate-Guitar.com Take our survey!
×
Author
Difficulty
Tuning
intermediate
C# G# C# F# A# D#
Artist: TRIVIUM
  Album: IN WAVES
  SONG: INCEPTION OF THE END

hey guys, this is my first tab and dont know a whole lotta musical theory so sorry if i 
cant tell you timings etc but hope this is right for all of you ENJOY!!

  tuning is in drop D flat (or C# as shown on the tab)


Guitar 1

D#|-----------------------------------------------------------------|
A#|-----------------------------------------------------------------|
F#|-----------------------------------------------------------------|
C#|-----------------------------------------------------------------|
G#|--------5------8-------------7---------------------4p0-4-7-4p0---|
C#|---12\----0-0----0-0--0h5h8-----8p5---3p0h3h6p3p0----------------|
             . .    . .
                          Guitar 2


D#|-----------------------------------------------------------------|
A#|-----------------------------------------------------------------|
F#|-----------------------------------------------------------------|
C#|-----------------------------------------------------------------|
G#|--------0~-----------------------------------------4p0-4-7-4p0---|
C#|---12\--0~-------------------------------------------------------|




                Guitar 1

D#|------------------------------------------------------------|
A#|------------------------------------------------------------|
F#|------------------------------------------------------------|
C#|------------------------------------------------------------|
G#|---5------8-------------7---------------------4p0-4-7~------|
C#|-----0-0----0-0--0h5h8-----8p5---3p0h3h6p3p0----------------|
        . .    . .


               Guitar 2
D#|---------------------------------------------------------------|
A#|---------------------------------------------------------------|
F#|---------------------------------------------------------------|
C#|---------------------------------------------------------------|
G#|-----------------------------------------------4p0-4-7~--------|
C#|---------------------------------------------------------------|


                Guitar 1
D#|------------------------------------------------------------|
A#|------------------------------------------------------------|
F#|------------------------------------------------------------|
C#|------------------------------------------------------------|
G#|---5------8-------------7---------------------4p0-4-7-4p0---|
C#|-----0-0----0-0--0h5h8-----8p5---3p0h3h6p3p0----------------|
        . .    . .


                Guitar 2
D#|-------------------------------------------|
A#|-------------------------------------------|
F#|-------------------------------------------|
C#|---0-0-0-0----0-0-0-0---0-0-0-0-0-0-0-0-0--|
G#|---0-0-0-0----0-0-0-0---0-0-0-0-0-0-0-0-0--|
C#|---0-0-0-0----0-0-0-0---0-0-0-0-0-0-0-0-0--|
      . . . .    . . . .   . . . . . . . . .
                  Both Guitars
D#|----------------------------------------------|
A#|----------------------------------------------|
F#|----------------------------------------------|
C#|---0-0-0-0----0-0-0-0---0-0-0-0-0-0-0-0-0-----|
G#|---0-0-0-0----0-0-0-0---0-0-0-0-0-0-0-0-0-----|
C#|---0-0-0-0----0-0-0-0---0-0-0-0-0-0-0-0-0-12\-|
      . . . .    . . . .   . . . . . . . . .





                 Both guitars
D#|------------------------------------------------------------|
A#|------------------------------------------------------------|
F#|------------------------------------------------------------|
C#|------------------------------------------------------------|
C#|------------------------------------------------------------|
G#|---5------8-------------7---------------------4p0-4-7-4p0---|
C#|-----0-0----0-0--0h5h8-----8p5---3p0h3h6p3p0----------------|
        . .    . .
                 Both Guitars
D#|------------------------------------------------------------|
A#|------------------------------------------------------------|
F#|------------------------------------------------------------|
C#|------------------------------------------------------------|
G#|---5------8-------------7---------------------4p0-4-7~------|
C#|-----0-0----0-0--0h5h8-----8p5---3p0h3h6p3p0----------------|
        . .    . .

                Guitar 1
D#|------------------------------------------------------------|
A#|------------------------------------------------------------|
F#|------------------------------------------------------------|
C#|------------------------------------------------------------|
G#|---5------8-------------7---------------------4p0-4-7-4p0---|
C#|-----0-0----0-0--0h5h8-----8p5---3p0h3h6p3p0----------------|
        . .    . .
                     Guitar 2

D#|-----------------------------------------------------------------|
A#|-----------------------------------------------------------------|
F#|-----------------------------------------------------------------|
C#|-----------------------------------------------------------------|
G#|---8------12-------------10---------------------7p0-7-10-7p0-----|
C#|-----0-0----0-0--0h8h11-----11p8---7p0h7h10p7p0------------------|
        . .    . .
                 Guitar 1

D#|---------------------------------------------------------|
A#|---------------------------------------------------------|
F#|---------------------------------------------------------|
C#|---------------------------------------------------------|
G#|---5------8-------------7---------------------4p0-4-7~---|
C#|-----0-0----0-0--0h5h8-----8p5---3p0h3h6p3p0-------------|
        . .    . .
                   Guitar 2

D#|--------------------------------------------------------------|
A#|--------------------------------------------------------------|
F#|--------------------------------------------------------------|
C#|--------------------------------------------------------------|
G#|---8------12-------------10---------------------7p0-7-10~-----|
C#|-----0-0----0-0--0h8h11-----11p8---7p0h7h10p7p0---------------|
        . .    . .
                   *Guitar 1
                  *couldnt tell the speeds but these next 2 pieces harmonise together*
D#|--------------------------------------------------------------|
A#|--------------------------------------------------------------|
F#|--------------------------------------------------------------|
C#|---0-0-0-0~--0-0-0-0~--7-7-7-7~--7-7-7-7~--8-8-8-8~--8-8-8-8~-|
G#|---0-0-0-0~--0-0-0-0~--7-7-7-7~--7-7-7-7~--8-8-8-8~--8-8-8-8~-|
C#|---0-0-0-0~--0-0-0-0~--7-7-7-7~--7-7-7-7~--8-8-8-8~--8-8-8-8~-|
      . . .     . . .     . . .     . . .     . . .     . . .
                   Guitar 1 continued

D#|-----------------------|
A#|-----------------------|
F#|-----------------------|
C#|---3-3-3-3~--3-3-3-3~--|
G#|---3-3-3-3~--3-3-3-3~--|
C#|---3-3-3-3~--3-3-3-3~--|
      . . .     . . .

                            *Guitar 2

D#|--------------------------------------------------------------------|
A#|--------------------------------------------------------------------|
F#|--------------------------------------------------------------------|
C#|--------------------------------------------------------------------|
G#|---5------5------5---7---8-7-----7-----7---8---10-8-----8-----8---10|
C#|-----0-0----0-0----0---0-----7-7---7-7---7---7------8-8---8-8---8---|
        . .    . .    .   .     . .   . .   .   .      . .   . .   .

                              Guitar 2 continued

D#|--------------------------------------------------------------|
A#|--------------------------------------------------------------|
F#|--------------------------------------------------------------|
C#|--------------------------------------------------------------|
G#|---12--12-10-8-10-8----8--------------------------------------|
C#|-8------------------10---10-8-10-8-7--------------------------|
    .

                        Guitar 1
              *same with these 2 pieces they harmonise*
D#|--------------------------------------------------------------------|
A#|--------------------------------------------------------------------|
F#|--------------------------------------------------------------------|
C#|--------------------------------------------------------------------|
G#|---5------5------5---7---8-7-----7-----7---8---10-8-----8-----8---10|
C#|-----0-0----0-0----0---0-----7-7---7-7---7---7------8-8---8-8---8---|
        . .    . .    .   .     . .   . .   .   .      . .   . .   .

                              Guitar 1 continued

D#|------|
A#|------|
F#|------|
C#|------|
G#|---12-|
C#|-8----|
    .
                          Guitar 2

D#|-----------------------------------------------------------------------|
A#|-----------------------------------------------------------------------|
F#|-----------------------------------------------------------------------|
C#|----------------------------------------7----8--------------------8---9|
G#|---7------7------7---10---12-10----10----------12-----12-----12--------|
C#|-----0-0----0-0----0---0-------7-7----7---7-------8-8----8-8----8---8--|
        . .    . .    .   .       . .    .   .       . .    . .    .   .

                              Both Guitars

D#|---------------------------------|
A#|---------------------------------|
F#|---------------------------------|
C#|---------------------------------|
G#|-12-10-8-10-8----8---------------|
C#|--------------10---10-8-10-8-7---|

     thanks for checking out my tab will hopefully get some more up soon :)
Suggest correction
Give kudos to tab author, rate the tab!
1 2 3 4 5
comments
print report bad tab
guest
You may want to rate the tab now too:
select rating
Wanna post a correction for this tab? Suggest correction