Oops, an error
Loading. Please wait.

Insurrection Tab

version 1
version 1

Intro

Whole song

Interactive

5,817 views 1 this week
3 commentsread comments
1 2 3 4 5
2 more votes to show rating
add to favorites
launch autoscroll
font size
0
reset
how to read this tab
guitar tuner
Autoscroll
slow
fast
+/-
esc
set tempo
stop
Help us to improve Ultimate-Guitar.com Take our survey!
×
Author
Difficulty
intermediate
Ok so I only have the intro tabbed and the chorus but I believe it is pretty accurate. 
be working on more of the song but I figured that I would post the intro to help some 
out.

Intro Riff
e|-----------------------------------------------------------------|
B|-----------------------------------------------------------------|
G|-----------------------------------------------------------------|
D|-----------------------------------------------------------------|
A|-8p7---10---7-----------0h7-10p0-5h8p7~-----------------3h5p2~---|
E|-----0----0---0-000-000-----------------0-000-0-000-000----------|
       .    .   . ... ...                 . ... . ... ...

e|------------------------------------||
B|------------------------------------||
G|------------------------------------||
D|-----------------------------5--5---||
A|---------3-2-----3-2-----2---5--5---||
E|-5-4-2-1-----1-1-----1-1---1-3--3---||
   . . . .     . .     . .   .

I also have the chorus,
e|-------------------------------------------------------------------|
B|-------------------------------------------------------------------|
G|-------------------------------------------------------------------|
D|-9------10-9------7-9-10-9-7-9-------------9------14-13-10-9-7-9---|
A|-7------8--7------5-7-8--7-5-7-------------7------12-11-8--7-5-7---|
E|----0-0-------0-0--------------0-0-0-0-0-0----0-0------------------|

e|-------------------------------------------------------------||
B|-------------------------------------------------------------||
G|-------------------------------------------------------------||
D|-----10-9-----7-9-10-9-7-9--------------9-----14-13-10-9-7---||
A|-----8--7-----5-7-8--7-5-7--------------7-----12-11-8--7-5---||
E|-0-0------0-0---------------0-0-0-0-0-0---0-0----------------||

I know its not very much but I believe it is pretty accurate and I am going to keep 
on the rest of the song and maybe this can start some other people to work on some tabs.
Suggest correction
Give kudos to tab author, rate the tab!
1 2 3 4 5
comments
print report bad tab
3 comments total.
0 reply
Alexdawsome 133 Sep 25, 2008 02:12 PM

i may be wrong but i think the intro actuali goes like this....

Intro Riff
e|----------------------------------------------------------------|
B|----------------------------------------------------------------|
G|----------------------------------------------------------------|
D|---------------------------9------------------------------------|
A|-8p7---10-7------------0h7----0-5h8p7~-----------------3h5p2~---|
E|-----0-------0-000-000-----------------0-000-0-000-000----------|
. . ... ... . ... . ... ...

e|--------------------------------------||
B|--------------------------------------||
G|--------------------------------------||
D|-----------------------------5--5\3---||
A|-----3---2-----3---2-----2---5--5\3---||
E|-0-0---0---0-0---0---0-0-----3--3\1---||
. . . . . . . .

good tab otherwise.

0 reply
madman 31 Sep 25, 2008 09:52 PM

yea alexdawsome ur first bar is correct but the second goes

:------------------------------------|
:------------------------------------|
:------------------------------------|
:------------------------------------|
:----------3-2-----3-2-----2---5-5---|
:--4-3-1-0-----1-1-----1-1---1-3-3---|

pretty close none-the-less tho, good tab

+2 reply
Alexdawsome 133 Sep 27, 2008 07:42 AM

Ahhhh i've just figured it out. i'm 99% sure its right

Intro Riff
e|----------------------------------------------------------------|
B|----------------------------------------------------------------|
G|----------------------------------------------------------------|
D|---------------------------9------------------------------------|
A|-8p7---10-7------------0h7----0-5h8p7~-----------------3h5p2~---|
E|-----0-------0-000-000-----------------0-000-0-000-000----------|
. . ... ... . ... . ... ...

e|------------------------------------------||
B|------------------------------------------||
G|------------------------------------------||
D|------------------------------------------||
A|-----------3---2-----3---2-----3---5--5---||
E|--4-3-1-0----1---1-1---1---1-1-----3--3---||
. . . . . . . . . .

guest
You may want to rate the tab now too:
select rating
Wanna post a correction for this tab? Suggest correction