Oops, an error
Loading. Please wait.

Insurrection Tab

version 1
version 1

Whole song

Interactive

36,880 views 33 this week
7 commentsread comments
1 2 3 4 5
excellent!
x 13
add to favorites
launch autoscroll
font size
0
reset
how to read this tab
guitar tuner
Tab Pro tools
  • play this tab
  • loop segment
  • change instrument
  • show fretboard
  • metronome
×
Best way to learn
"Insurrection"
Autoscroll
slow
fast
+/-
esc
set tempo
stop
Difficulty
advanced
Trivium-Insurrection        guitar one= Corey King Beaulieu
Shogun 2008                 guitar two= Matthew Kiichi Heafy
Standard E 6 string guitar
This is the guitar pro tab, but i did it for the people who doesn´t have guitar pro
                       INTRO guitars one and two
e|-----------------------------------------------------------------|
B|-----------------------------------------------------------------|
G|-----------------------------------------------------------------|
D|----------------------------9------------------------------------|
A|-8p7---10---7-----------0-7---7-5h8-7~-----------------3h5p2h3p2~
E|-----0----0---0-000-000-----------------0-000-0-000-000----------|
       .    .   . ... ...                 . ... . ... ...
e|-----------------------------------------------------------------|
B|-----------------------------------------------------------------|
G|-----------------------------------------------------------------|
D|-----------------------------------------------------------------|
A|-------3-2-—3-2—-3-55--------------------------------------------
E|4-3-1-0-1-11-1-11-—33-----------------------------------x2
  . . . . . .. . ..      VERSE guitars one and two
e|----------------------------------------------ending one!|-----------|
B|----------------------------------------------|------CKB-|-----MKH---|
G|----------------------------------------------|----------|-----------|
D|----------------------------------------------|----------|-----------|
A|3p2---5p2-----------------------3p2---5p2-----|-----8-7--|----12-10--|
E-1p0-0-3p0-0-0-0-0-0-000-000-000-1p0-0-3p0-000-|0000----8—|0000-----12|       
      .     . . . . . ... ... ...     .     ...  ....       ....
e|-ending two!-----------|---------------------|
B|-------------CKB-------|------MKH------------|
G|-----------------------|---------------------| end on: 1,2,1,2
D|-----6-9------7-10-----|-----10-13-----11-14-|
A|---------5-8-----------|----------9-12-------|
E|4-7--------------------|-8-11----------------|
  . .  . . . .  . .        . .  . . . .  .  .
                           PRE CHORUS 1     
e|-----------------------------------------|-----------------------|
B|-----------------------------------------|--Ending one-----------|
G|-----------------------------------------|----------CKB&MKH------|
D|7—---9--10------12--10--9---7----9---10--|----9------------------|
A|0-00-0-0-0-0000-0-0-0-0-0-0-8-88-8-8-8-88|-88-8-8----------------|
E|-----------------------------------------|-------8---------------|
    ..   .   ....   .   .   .   ..   .   ..  ..   .
e|-----------------|---------------------|
B|-ending two--CKB-|--MKH----------------|
G|-9-7----7-9-10-9-|12-10----10-12-14-12-|
D|-----10----------|------12-------------|
A|-----------------|---------------------|
E|-----------------|---------------------|
      
e|ending three-------|-------------------------|
B|-------CKB---------|-------MKH---------------|
G|-9-7---------------|-12-10-------------------|
D|-----10-9-7--------|-------14-12-10----------| End on= 1,2,1,3
A|------------10-8-7-|----------------14-12-10-|
E|-------------------|-------------------------|
                        CHORUS 
E|-----------------------------------------------------------------|
B|---------------------CKB&MKH-------------------------------------|
G|-----------------------------------------------------------------|
D|9---10-9---7-9-10-9-7-9------9----14-13-10-9-7---play twice------|
A|7---8--7---5-7-8--7-5-7-2222-7----12-11-8--7-5-------------------|
E|--00-----00-------------0000---00--------------------------------|
    ..     ..             ....   ..
                        Repeat: Intro – Verse – Pre Chorus – Chorus


                        BRIDGE PART ONE
e|-----------------------------------------------------------------|
B|------------CKB--------------------------------------------------|
G|-------------------------------------------------------2---4-----|
D|--2-3—0-2—2—3-2-3---2---1---2-3---0-2---2---3-2-3-------------|
A|-----------------------------------------------------------------|play twice
E|0----0----0—1-------1---1---4-----4-----4---1-------1---1-------|
  . . .. . .. .. . . . .   .   . . . . . . . . . . . . .   .
 BRIGDE PART TWO is the same as part one but now only mute the notes on the low E string
 MKH BRIDGE PART TWO:     Matt doesn’t play anything in bridge part one
e|-----------------------------------------------------------------|
B|-----------------------------------------------------------------|
G|-----------------------------------------------------------------|
D|-----------------------------------------------------------------|
A|-----------------------------------------------------------------|
E|000000000111111114444444411111111—x2-----------------------------|
  …..............................
                            PRE BREAKDOWN

CKB is the Pre breakdown the same as brodge part one, but now mute nothing

      
e|----------------------------MKH----------------------------------|
B|-----------------------------------------------------------------|
G|-----------------------------------------------------------------|
D|23632363---------------------------------------------------------|
A|-----------------------------------------------------------------|
E|01410141---------------------------------------------------------|
                             BREAKDOWN
e|-----------------------------------------------------------------|
B|-----------------------------------------------------------------|
G|-----------MKH & CKB---------------------------------------------|
D|-------------------------pick every note 24 times----------------|
A|-----------------------------------------------------------------|
E|01410141---------------------------------------------------------|
                           SOLO BACKING
e|--------------------------------------------part one-------------|
B|-----------------------------------------------------------------|
G|-------------------------------------------------------------x2--|
D|2-0-2-3---2---0---2---3-6-3-2-3-2-0-2-3---2---0---2---3----------|
A|2-0-2-3---2---0---2---3-6-3-2-3-2-0-2-3---2---0---2---3----------|
E|--------0---0---0---0-------------------0---0---0---0----4-5-----|
          .   .   .   .                   .   .   .   .

play the part above twice and than this:
e|-pt2-|
B|-----|  play it like this: 1,1,2,1,1,2
G|-----|
D|3-6-7| 
A|-----|
E|1-4-5|
                             SOLO CKB
e|---------------------------------------------------------------------------|
B|-------------------------------------------------1719201917----------171920|
G|-------------------------------141617------161719----------1917161719------|
D|------------141617-------141617------161719--------------------------------|
A|------121415------141517---------------------------------------------------|
E|121415---------------------------------------------------------------------|
   . . . . . . . . . . . . . . .    
e|1719201917--------17-1717/16161616/13131313/121212-t16p13p12t16p12t16p13p12|
B|----------20-20fb----------------------------------------------------------|
G|---------------------------------------------------------------------------|
D|---------------------------------------------------------------------------|
A|---------------------------------------------------------------------------|
E|---------------------------------------------------------------------------|
      
e|----------------------------------------------------------|----harmony CKB-|
B|t15p13p12t15p12t15p13p12----------------------------------|----------------|
G|----------------------------------------------------------|-----------1013-|
D|---------------------t12p10p9t12p9t12p10p9----------------|----------------|
A|---------------------------------------t11p8p7t11p8p7t11p7|---14171114-----|
E|----------------------------------------------------------|1215------------|
                                                            . .      . .
e|-----------1316—12/1919/2424--24-22h24p22-22-20-19-20-22-//22-20h22p20-----|
B|----1215912----------------------------------------------------------------|
G|---------------------------------------------------------------------------|
D|1215-----------------------------------------------------------------------|
A|---------------------------------------------------------------------------|
E|---------------------------------------------------------------------------|
  . .     . .
e|19h20p19----|------------------------------10-13---------------------------|
B|---------18-|----------------------9-12-6-9---------harmony MKH------------|
G|------------|--------------7-10-----------------9/1616/21--21-19h21p19-----|
D|-harmonieCKB|------------------9-12----------------------------------------|
A|------------|----11-14-8-11------------------------------------------------|
E|------------|8-12----------------------------------------------------------|
               . .       .  .     . .     . .


e|-------------harmony MKH------------------------|
B|------------------------------------------------|
G|19-17-16-17-19-//19-17h19p17---16h17p16---------|
D|----------------------------18----------15------|
A|------------------------------------------------|
E|------------------------------------------------|
  Continue solo CKB:
e|13-8-------------------8-17-13----------------------201917---------------------|
B|----10---------------10-------13--------------------------181715---------------|
G|------10-----------10-----------14----------------14------------171614161413---|
D|--------10-------10---------------15------------15-----------------------------|
A|----------12-8-12-------------------15--------15-------------------------------|
E|--------------------------------------17-13-17---------------------------------|
     
                            SOLO MKH
e|-----------------------------------------------------------|
B|-----------------------------------------------------------|
G|-------------------------------------14-13-10-9-109797-----|
D|------------------------------------------------------1097-|
A|12-11-8-7--87578---12-11-14-14b^b^b^-----------------------|
E|----------------875----------------------------------------|
      
e|--------------------------------------------------------------------------|
B|13101213101215121315121317131517131518151718151721171821171822-22-21-18-17|
G|--------------------------------------------------------------------------|
D|--------------------------------------------------------------------------|
A|--------------------------------------------------------------------------|
E|--------------------------------------------------------------------------|
      
e|16h17p16p13h16p13----------------------------------------------------------|
B|-----------------17h18p15h17-----------------------------------------------|
G|----------------------------16h17p16p14h16p14p13h14p13--13-----------------|
D|------------------------------------------------------15—15p14h15p12h14—12-|
A|-----------------------------------------------------------------------15--|
E|---------------------------------------------------------------------------|
      
e|---------------------------------|
B|---------------------------------|
G|---------------------------------|
D|---------------------------------|
A|15p14h15p12h14h15p14p12----------|
E|-----------------------13-12-10-5|
                          LAST HARMONY:CKB
e|t8p5h7 eight times-t7p4h5 6 times—10fb---------------------------|
B|-----------------------------------------------------------------|
G|-----------------------------------------------------------------|
D|-----------------------------------------------------------------|
A|-----------------------------------------------------------------|
E|-----------------------------------------------------------------|
                          LAST HARMONY:MKH
e|t12p8h10 8 times—t10p7h8 6 times-17fb----------------------------|
B|-----------------------------------------------------------------|
G|-----------------------------------------------------------------|
D|-----------------------------------------------------------------|
A|-----------------------------------------------------------------|
E|-----------------------------------------------------------------|
      PLAY CHORUS TWICE THAN INTRO RIFF TWICE AND END ON:
e|-----------------------------------------------------------------|
B|-----------------------------------------------------------------|
G|-----------------------------------------------------------------|
D|-----------------------------------------------------------------|
A|---------333-----------------------------------------------------|
E|0-000-0--111-----------------------------------------------------|
  . ... .  




comments
print report bad tab
7 comments total. Showing first comments.
+1 reply
alex z wrote on November 12 2008, 05:31 am

sweet tab, solo is awesome, can u put this on power tab dude coz its kinda hard to learn(if u want)

+1 reply
bassplaya53 wrote on January 11 2009, 01:41 am

sick tab dude, sounds exaclty like the song.

+1 reply
Jamma wrote on January 22 2009, 09:34 am

You forgot that the last chorus is an octave down the second time through. No biggy though, great tab

I want to post or [tab]
guest
You may want to rate the tab now too:
select rating
Please do not post tabs as comments. Select "correction" instead!