Oops, an error
Loading. Please wait.

Into The Mouth Of Hell We March Tab

version 1
version 1

Solo

Whole song

9,433 views 1 this week
7 commentsread comments
1 2 3 4 5
accurate
x 7
add to favorites
launch autoscroll
font size
0
reset
how to read this tab
guitar tuner
Tab Pro tools
  • play this tab
  • loop segment
  • change instrument
  • show fretboard
  • metronome
×
Best way to learn
"Into The Mouth Of Hell We March"
Autoscroll
slow
fast
+/-
esc
set tempo
stop
Contributor
-------------------------------------------------------------------------------
        Into the mouth of hell we march SOLO - Trivium
-------------------------------------------------------------------------------
Tabbed by:Jonny
Email:Jonny_rock_ldzppln@hotmail.co.uk

Tuning:EADGBe

This the solo section, I believe it is accurate.

Massive thanks to Alexdawsome for tabbing the sweeps at the end.. as i failed miserably 
so go check out his kirisute gomen tab for more good trivium stuff!!

Comments/Compliments/Complaints Welcome.

| /  slide up
| \  slide down
| h  hammer-on
| p  pull-off
| ~  vibrato
| +  harmonic
| x  Mute note
| Tr Trill (hammering on and pulling off repeatedly very quickly)

 3:39

e|---------------------------------------------------------------------------|
B|-18-18-18-18-18-18-18-18-17-18-17-17-17-17-17-17-17-17-16-17-16-16-16-16-16|
G|---------------------------------------------------------------------------|
D|---------------------------------------------------------------------------|
A|---------------------------------------------------------------------------|
E|---------------------------------------------------------------------------|

e|-------------------------------------------------21-18-17------------------|
B|-16-16-16-16-15-16-15-15-15-15-15-15-15-15-16-17----------20-18-17---------|
G|--------------------------------------------------------------------19-17--|
D|---------------------------------------------------------------------------|
A|---------------------------------------------------------------------------|
E|---------------------------------------------------------------------------|


e|---------------------------------------------------------------------------|
B|---------------------------------------------------------------------------|
G|-16--------------------------------------------------------h--T--p--p--h--T|
D|----19-17-15-17-15-14-15-14-12---------------------------10-12-13-12-10-12-|
A|-------------------------------15-14-12------------------------------------|
E|----------------------------------------15-14-10-12~~----------------------|

e|--------------------------------------------------------------------h--T--p|
B|------------------------------h--T--p--p--h--T--p--p--h--T--p—-h--12-13-15-|
G|--p--p--h--T--p--h--T--p----11-12-14-12-11-12-14-12-11-12-14-12------------|
D|13-10-12-13-12-10-12-13-12-------------------------------------------------|
A|---------------------------------------------------------------------------|
E|---------------------------------------------------------------------------|
                                                                 H  T  p  p
e|--p--h--T--p--p--h--T------h--T--p--p--h--T--p--p--h—-T--p---12-14-15-14-12|
B|13-12-13-15-13-12-13-15--13-15-17-15-13-15-17-15-13-15-17-15---------------|
G|---------------------------------------------------------------------------|
D|---------------------------------------------------------------------------|
A|---------------------------------------------------------------------------|
E|---------------------------------------------------------------------------|
  h  T  p  p  h  T  p        p  p  h  p  p      p  p  h  p  p     p  p
e|-14-15-14-12-14-15-14----20-19-17-20-19-17--19-17-15-19-17-15-15-14-12---p-|
B|-----------------------------------------------------------------------15--|
G|---------------------------------------------------------------------------|
D|---------------------------------------------------------------------------|
A|---------------------------------------------------------------------------|
E|---------------------------------------------------------------------------|

e|---p-----------------------------------------------------17-15-14-15-------|
B|-13-12--------------------------------------10-----------------------------|
G|-------14~~------------------------------------12-11-12--------------------|
D|---------------------------------------------------------------------------|
A|------------------------------12-------------------------------------------|
E|------------------12-15-14-15----15-14-15----------------------------------|
      tr          tr
e|--14—15\------12—14\--------tr---------------------------------------------|
B|---------------------------8—-10\\\----------------------------------------|
G|------------------------------------------tr-------------------------------|
D|-----------------------------------------4—5\---2~~------------------------|
A|---------------------------------------------------------------------------|
E|---------------------------------------------------------------------------|


2 Guitar Part

Guitar 1
3:53

e|---------------------------------------------------------------------------|
B|-----h--p-------------h--p-------------h--p--------------h--p--------------|
G|---11-12-11---------15-16-15---------17-18-17----------15-16-15------------|
D|---------------------------------------------------------------------------|
A|---------------------------------------------------------------------------|
E|---------------------------------------------------------------------------|

Guitar 2

e|---------------------------------------------------------------------------|
B|---------------------------------------------------------------------------|
G|-----------99999999--------99999999-----------99999999----------99999999---|
D|---------------------------------------------------------------------------|
A|---------------------------------------------------------------------------|
E|---------------------------------------------------------------------------|


 The rest is one guitar again

   Guitar 1 -
e|-15-15-15-15-14-14-14-14-12-12-12-12-14-14-14-14---------------------------|
B|-------------------------------------------------15-15-15-15-13-13-13-13-12|
G|---------------------------------------------------------------------------|
D|---------------------------------------------------------------------------|
A|---------------------------------------------------------------------------|
E|---------------------------------------------------------------------------|

e|---------------------------------------------------------------------------|
B|-12-12-12-13-13-13-13------------------------------------------------------|
G|----------------------14-14-14-14-12-12-12-12-11-11-11-11-12-12-12-12-11-11|
D|---------------------------------------------------------------------------|
A|---------------------------------------------------------------------------|
E|---------------------------------------------------------------------------|

e|---------------------------------------------------------------------------|
B|---------------------------------------------------------------------------|
G|-11-11-9~~~----------------------------------------------------------------|
D|---------------------------------------------------------------------------|
A|---------------------------------------------------------------------------|
E|---------------------------------------------------------------------------|

  3:57
e|------------19-17-15-20-19-17-22-20-19-22-20-19-20-19-17-19-17-15-17-15-14-|
B|---20-19-17----------------------------------------------------------------|
G|---------------------------------------------------------------------------|
D|---------------------------------------------------------------------------|
A|---------------------------------------------------------------------------|
E|---------------------------------------------------------------------------|

e|-15-14-12------------------------------------------------------------------|
B|----------15-13-12---------------------------------------------------------|
G|-------------------14-12-11-12-12-12-11-9~~--------------------------------|
D|---------------------------------------------------------------------------|
A|---------------------------------------------------------------------------|
E|---------------------------------------------------------------------------|

e|-15-14-12-14-12-11-12-11-8-11-8-7-8-7-5-7-5-3-5-3-2-3-2-0------------------|
B|---------------------------------------------------------------------------|
G|---------------------------------------------------------------------------|
D|---------------------------------------------------------------------------|
A|---------------------------------------------------------------------------|
E|---------------------------------------------------------------------------|

   4:02
e|---------------------------------------------------------------------------|
B|-----------------------------------------------------------12-13-15-13-12--|
G|-/9-8~~---/12-11~~---/16-15---/19-18~~------11-12-14-12-11-----------------|
D|---------------------------------------------------------------------------|
A|---------------------------------------------------------------------------|
E|---------------------------------------------------------------------------|

e|--12-14-15-14-12--------------------12-14-15-14-12-14-15-17-15-14-----12-14|
B|---------------------12-13-15-13-12----------------------------------------|
G|---------------------------------------------------------------------------|
D|---------------------------------------------------------------------------|
A|---------------------------------------------------------------------------|
E|---------------------------------------------------------------------------|

e|-15-14-12-14-15-17-15-14-17-19-17-15------/15--14~~----/20--19~~-----------|
B|---------------------------------------------------------------------------|
G|---------------------------------------------------------------------------|
D|---------------------------------------------------------------------------|
A|---------------------------------------------------------------------------|
E|---------------------------------------------------------------------------|

   4:10
e|-10----------12---------13---------12--------10---------8---------6--------|
B|-13b(15)-----15b(17)----16(b18)----15b(17)---13b(15)----13b(15)---9b(11)---|
G|---------------------------------------------------------------------------|
D|---------------------------------------------------------------------------|
A|---------------------------------------------------------------------------|
E|---------------------------------------------------------------------------|

e|-19p15-----------15h19p15--17p14----------14h17p14----|
B|-------17-----17-----------------15----15-------------|
G|----------16------------------------14----------------|
D|------------------------------------------------------|
A|------------------------------------------------------|
E|------------------------------------------------------|

e|-15p12----------12h15p12--14p11----------11h14p11----|
B|-------13----13-----------------12----12-------------|
G|----------12-----------------------11----------------|
D|-----------------------------------------------------|
A|-----------------------------------------------------|
E|-----------------------------------------------------|

play that twice ^^^ then end on

e|-17b19-15h17p15--14b15~----|
B|---------------------------|
G|---------------------------|
D|---------------------------|
A|---------------------------|
E|---------------------------|


Thanks for reading

Good luck.. those sweeps are insane
comments
print report bad tab
7 comments total. Showing first comments.
+1 reply
borndeadquofan wrote on August 6 2008, 11:48 am

Yo nice tab man but theres a few mistakes

+1 reply
Alexdawsome wrote on August 11 2008, 08:47 am

sorry to say it mate but i think you were out of tune when you tabbed this.
for example the start of the solo the first note tremolo picked is the 17th fret on the B string not the 18th

you've got the right pattern of notes ect on most of it but sorry to say there are quite a lot of mistakes.

very good attempt however

+1 reply
Alexdawsome wrote on August 11 2008, 09:08 am

on the sweeping harmony part 1 of the guitars plays this
im pretty sure they're 3 string sweeps not 5)

e|-19p15-----------15h19p15--17p14----------14h17p14----|
B|-------17-----17-----------------15----15-------------|
G|----------16------------------------14----------------|
D|------------------------------------------------------|
A|------------------------------------------------------|
E|------------------------------------------------------|

e|-15p12----------12h15p12--14p11----------11h14p11----|
B|-------13----13-----------------12----12-------------|
G|----------12-----------------------11----------------|
D|-----------------------------------------------------|
A|-----------------------------------------------------|
E|-----------------------------------------------------|

play that twice ^^^ then end on

e|-17b19-15h17p15--14b15~----|
B|---------------------------|
G|---------------------------|
D|---------------------------|
A|---------------------------|
E|---------------------------|

pretty good tab anyway, ill tell u if i spot any other problems, i'll be on msn if you want to talk.

I want to post or [tab]
guest
You may want to rate the tab now too:
select rating
Please do not post tabs as comments. Select "correction" instead!