Oops, an error
Loading. Please wait.

Into The Mouth Of Hell We March Tab

version 1
version 1

Whole song

27,062 views 15 this week
8 commentsread comments
1 2 3 4 5
excellent!
x 17
add to favorites
launch autoscroll
font size
0
reset
how to read this tab
guitar tuner
Autoscroll
slow
fast
+/-
esc
set tempo
stop
Help us to improve Ultimate-Guitar.com Take our survey!
×
Author
Difficulty
advanced
Artist: Trivium
Album: Shogun
Song: Into The Mouth of Hell We March
Tabbed by: Dan O'Brien
Tuning: Standard

Okay, i've tabbed this out before but its was utter crap because i only had a 6 
string. Now i have a 7
string im gonna give it another go. I haven't put the riffs in the correct order 
for the whole song so you
may have to work out which bit goes where, but im sure you'll be fine. if you have 
any questions, then
leave a comment and i shall answer (probably):P

Guitar 1 - Lead
Guitar 2 - Rhythm
Guitar 3 - Harmonies


Update 20/5/09 - Added a couple of corrections to the tab and changed a couple of 
harmonys. I got the
corrections from the Shogun DVD.

Update 19/6/09 - Finally got round to adding the solo. Its not perfect, i know, 
but its pretty damn close
(i think). Any corrections and pointers would be nice :P


~~Riff A~~
Guitar 1  
e|--------------------------------------------------------------------------------------|
B|--------------------------------------------------------------------------------------|
G|-11b12r11--------11b12r11-------11-12-9~---11b12r11--------11b12r11-------11-12-16~---|
D|----------12-10-----------12-10---------------------12-10-----------12-10-------------|
A|--------------------------------------------------------------------------------------|
E|--------------------------------------------------------------------------------------|
B|--------------------------------------------------------------------------------------|

Guitar 2 (The muted strings are NOT nesessary, their just nice to play)
e|-------------------------------------------------------|
B|-------------------------------------------------------|
G|-------------------------------------------------------|
D|-------------------------------------------------------|
A|-3-3-3----3----3-3-3----5----7-7-7----7----7-7-7----5--|
E|-3-3-3----3----3-3-3----5----7-7-7----7----7-7-7----5--|
B|-1-1-1-XX-1-XX-1-1-1-XX-3-XX-5-5-5-XX-5-XX-5-5-5-XX-3--|

OR

(This is the proper way to play the backing for the intro but its much harder. It 
is on the Shogun DVD so
its definatly correct. I'll leave the other one on here incase you find this one 
difficult)

e|-------------------------------------------------------------|
B|-------------------------------------------------------------|
G|-------------------------------------------------------------|
D|-5-5-5----5----4-4-4-----------4-4-4----4h5----2-2-2---------|
A|-3-3-3----3----3-3-3----3/5----2-2-2----2------2-2-2----5----|
E|-X-X-X----X----X-X-X-----------0-0-0----0------0-0-0----5----|
B|-1-1-1-XX-1-XX-1-1-1-XX-1/3-XX-------XX-----XX-------XX-3-XX-|


~~Riff B~~
Guitar 1
e|---------------------------------------------|----------------------------------------------|
B|---------------------------------------------|----------------------------------------------|
G|---------------------------------------------|----------------------------------------------|
D|------------5--------4------------5--------2-|--------4----4-------2---2--------7----7------|
A|-------3---------3-----------3---------------|--------3----3-------3---3--------7----7------|
E|---------------------------------------3-----|-0-000----0----0-000---0---0-000----0----0-000|
B|-1-111---11---11---1---1-111---11---11---1---|----------------------------------------------|
PM . ...   ..   ..   .   . ...   ..   ..   .     . ...    .    . ...   .   . ...    .    . ...    .

----------|
----------|
----------|
--7----7--|
--5----5--|
----0-----|
----------|

Guitar 2 (Plays the first part with guitar 1 but then does this harmony with the second bit)
e|----------------------------------------------------------|
B|----------------------------------------------------------|
G|----------------------------------------------------------|
D|----------------------------------------------------------|
A|-------12---12-------10---10-------15---15-------14---14--|
E|-0-000----0----0-000----0----0-000----0----0-000----0-----|
B|----------------------------------------------------------|
PM . ...    .    . ...    .    . ...    .    . ...    .


~~Riff C~~
Guitar 1
e|------------------------------------------------------------------------------------------------|
B|------------------------------------------------------------------------------------------------|
G|------------------------------------------------------------------------------------------------|
D|------5-4-5-7-5-4-5-4--------5-4-5-7-5-4-5-4--------5-4-5-7-5-4-5-4--------5-4-5-7-5-4-5-4------|
A|-3-33-----------------5-3-33-----------------5-7-77-----------------5-7-77-----------------5----|
E|------------------------------------------------------------------------------------------------|
B|------------------------------------------------------------------------------------------------|

e|------------------------------|
B|------------------------------|
G|-5-4-2-4-2---2----------------|
D|-----------5---5-4-5-4-2------|
A|------------------------------|
E|------------------------------|
B|------------------------------|

Guitar 2
e|--------------------------------------------------------------------------------|
B|--------------------------------------------------------------------------------|
G|--------------------------------------------------------------------------------|
D|--------------------------------------------------------------------------------|
A|------3-3------3-3------3-3------5-5------7-7------7-7------7-7------5-5--------|
E|------3-3------3-3------3-3------5-5------7-7------7-7------7-7------5-5--------|
B|-1-11-1-1-1-11-1-1-1-11-1-1-1-11-3-3-5-55-5-5-5-55-5-5-5-55-5-5-5-55-3-3--------|
PM . ..     . ..     . ..     . ..     . ..     . ..     . ..     . ..

e|--------------------------------------------------------------------|
B|--------------------------------------------------------------------|
G|--------------------------------------------------------------------|
D|----------------------------------------------------------5--4-5----|
A|------3-3------3-3------3-3------5-5------7-7------7-7----5--4-5----|
E|------3-3------3-3------3-3------5-5------7-7------7-7----3--2-3----|
B|-1-11-1-1-1-11-1-1-1-11-1-1-1-11-3-3-5-55-5-5-5-55-5-5--------------|
PM . ..     . ..     . ..     . ..     . ..     . ..    

Guitar 3 
e|----------------------------------------------------------------------------------------------|
B|----------------------------------------------------------------------------------------------|
G|-----4-2-4-5-4-2-4-2--------4-2-4-5-4-2-4-2--------4-2-4-5-4-2-4-2--------4-2-4-5-4-2-4-2-----|
D|---------------------5----------------------5-2-22-----------------5-2-22-----------------5---|
A|-3-33------------------3-33-------------------------------------------------------------------|
E|----------------------------------------------------------------------------------------------|
B|----------------------------------------------------------------------------------------------|

e|------------------------------|
B|------------------------------|
G|-7-5-4-5-4---4----------------|
D|-----------7---7-5-7-5-4------|
A|------------------------------|
E|------------------------------|
B|------------------------------|


~~Riff D~~
Guitar 1
e|----------------------------------------------------------------|
B|--12---------------------12-------------------------------------|
G|-----12-11-12-9-7-(7h)9-----12-11-12-9-7-(7h)9--11-11/12\11-9---|
D|----------------------------------------------------------------|
A|----------------------------------------------------------------|
E|----------------------------------------------------------------|
B|----------------------------------------------------------------|

Guitar 2
e|--------------------------------------------------|
B|--------------------------------------------------|
G|--------------------------------------------------|
D|--------------------------------------------------|
A|-3-3-5--5-55-7-5-7--3-3-5--5-55-7-5-7-7-5---------|
E|-3-3-5--5-55-7-5-7--3-3-5--5-55-7-5-7-7-5---------|
B|-1-1-3--3-33-5-3-5--1-1-3--3-33-5-3-5-5-3---------|


~~Riff E~~
Guitar 1
e|---------------------------------------------------------|
B|---------------------------------------------------------|
G|-9-9-9h11-7-7-11-12-11-9---9-9-9h11-7-7-11-12-11-9-7-----|
D|---------------------------------------------------------|
A|---------------------------------------------------------|
E|---------------------------------------------------------|
B|---------------------------------------------------------|

Guitar 2
e|-------------------------------------------------------------------|
B|-8-8-8h10-7-7-10-12-10-8---8-8-8h10-7-7-10-12-10-8-7---------------|
G|-------------------------------------------------------------------|
D|-------------------------------------------------------------------|
A|-------------------------------------------------------------------|
E|-------------------------------------------------------------------|
B|-------------------------------------------------------------------|

Guitar 3
e|---------------------------12-12-12h14-10-10-14-15-14-12-10--------|
B|-------------------------------------------------------------------|
G|-------------------------------------------------------------------|
D|-------------------------------------------------------------------|
A|-------------------------------------------------------------------|
E|-------------------------------------------------------------------|
B|-------------------------------------------------------------------|


~~Riff F~~
Guitar 1 (There is a Hammer&PullOff bit in this riff sometimes)
e|-----------------------------------------------|
B|-12-------------12-----------------------------|
G|-------11-12~~--------11-12--14-12-11----------|
D|----14-------------14-----------------14-------|
A|-----------------------------------------------|
E|-----------------------------------------------|
B|-----------------------------------------------|

Guitar 2
e|---------------------------------------------------------------------|
B|---------------------------------------------------------------------|
G|---------------------------------------------------------------------|
D|---------------------------------------------------------------------|
A|-7---5---3---2--5--7-7-7-7/--5-5-5-5/--3-3-3-3--2-2-2-2--5-5-5-5-----|
E|-7---5---3---2--5--7-7-7-7/--5-5-5-5/--3-3-3-3--2-2-2-2--5-5-5-5-----|
B|-5---3---1---0--3--5-5-5-5/--3-3-3-3/--1-1-1-1--0-0-0-0--3-3-3-3-----|

e|----------------------------------------------------------------------------------------|
B|----------------------------------------------------------------------------------------|
G|----------------------------------------------------------------------------------------|
D|------------------9p7------------------------------/7p5-----------------------------5p4-|
A|-7-7-7-7-0h7h10p7----10p7h10p7p5h7-5-5-5-5-0h5h9p5-----9p5h9p5p3h5-3-3-3-3--0h3h7p3-----|
E|-7-7-7-7---------------------------5-5-5-5-------------------------3-3-3-3--------------|
B|-5-5-5-5---------------------------3-3-3-3-------------------------1-1-1-1--------------|

-----------|
-----------|
-----------|
-----------|
7p3h7p3p2h3|
-----------|
-----------|

e|--------------------------|
B|--------------------------|
G|--------------------------|
D|---------5-4---------4-5--|
A|-2-2-2-2-----5-5-5-5------|
E|-2-2-2-2-----5-5-5-5------|
B|-0-0-0-0-----3-3-3-3------|


~~Riff G~~
Guitar 1
e|-----------------------------------------------------------------------------------------------|
B|-----------------------------------------------------------------------------------------------|
G|-----------------------------------------------------------------------------------------------|
D|--------9-7---------------------9-7---------12~----------9-7-------------9--7---10--9----------|
A|-7-9-10-----10-9-10-7~---5-9-10-----10-9-10---------9-10-----10-9-10-7-----------------9-10-7--|
E|--------------------------------------------------8--------------------------------------------|
B|-----------------------------------------------------------------------------------------------|

e|------------------------------------------------------------------------------------------|
B|------------------------------------------------------------------------------------------|
G|------------------------------------------------------------------------------------------|
D|--------9-7---------------------9-7---------12~----------9-7------------9-7-9-12-9-12-14--|
A|-7-9-10-----10-9-10-7~---5-9-10-----10-9-10---------9-10-----10-9-10-7--------------------|
E|--------------------------------------------------8---------------------------------------|
B|------------------------------------------------------------------------------------------|

Guitar 2(Strum these with what ever pattern you feel like. Most things fit in)
e|----------------------------------------------|
B|----------------------------------------------|
G|----------------------------------------------|
D|----------------------------------------------|
A|-7---5---3---2--5----7---9---3---2--5--7/-----|
E|-7---5---3---2--5----7---9---3---2--5--7/-----|
B|-5---3---1---0--3----5---7---1---0--3--5/-----|

Guitar 3
e|------------------------------------------------------------------------------|
B|-------3------------------3---------3--------3--------------------------------|
G|---2-4---5-4-2-4------2-4---5-4-2-4------2-4---5-4-2-4-----7-5-4-11-7-11-12---|
D|-5---------------5--4----------------------------------5----------------------|
A|---------------------------------------3--------------------------------------|
E|------------------------------------------------------------------------------|
B|------------------------------------------------------------------------------|


~~Riff H~~
Guitar 2
e|-------------------------------------------------------------------------|-------------------|
B|-------------------------------------------------------------------------|-------------------|
G|-------------------------------------------------------------------------|-------------------|
D|---------------------------------------------------------------------0~--|-------------------|
A|---------------------------------------------------------------------0~--|-7-5-3-2-7-5-3-2---|
E|-000-0-000-0h5h7---0-000-0-000-0h7h8---0-000-0-000-0h8h10---0-000-00-----|-7-5-3-2-7-5-3-2---|
B|-------------------------------------------------------------------------|-5-3-1-0-5-3-1-0---|


~CKB SOLO~
Right.... This is gonna take a while... I'll write it in little, easier-to-learn chunks: 

e|------------------------------------------------------------|
B|-17171717161617171616161613131616131313131212131312121212---|
G|------------------------------------------------------------|
D|------------------------------------------------------------|
A|------------------------------------------------------------|
E|------------------------------------------------------------|
B|------------------------------------------------------------|

On this part, it is important to keep time. (these aren't triplets. count them in straight fours)
e|-201917---------------------------------------------------------|
B|--------201917--------------------------------------------------|
G|---------------191716-------------------------------------------|
D|----------------------191716------------------------------------|
A|-----------------------------191715-----------------------------|
E|------------------------------------19--1715-----15-------------|
B|--------------------------------------------1917---191715-17----|

e|-------------------------------------------------------------14h15p14h15p14--|
B|----------------------------------------------12h13p12h13p12-----------------|
G|-------------------------------11h12p11h12p11--------------------------------|
D|----------------13h14p13h14p13-----------------------------------------------|
A|-----------------------------------------------------------------------------|
E|-11h12p11h12p11--------------------------------------------------------------|
B|-----------------------------------------------------------------------------|

Not too sure on this bit....
e|-20171417-20p17p14-----------------------------------------|
B|-------------------20171417-20p17p14-----------------------|
G|-------------------------------------20p17p14--------------|
D|-----------------------------------------------20-17-14----|
A|-----------------------------------------------------------|
E|-----------------------------------------------------------|
B|-----------------------------------------------------------|

e|----------------------------------------------|
B|----------------------------------------------|
G|-----------9-8-9-11-12-11-12-14-12-11-12------|
D|-----9---9------------------------------------|
A|-7-----9--------------------------------------|
E|---0------------------------------------------|
B|----------------------------------------------|
Pm   .   .

I really cant work out the tapping lick. But if you play the tapping in the first 
solo in Becoming The
Dragon, that seems to fit well.

e|-32320000-53530000-75750000-87870000-1212111188111188778877-557755-----------|
B|------------------------------------------------------------------887755-----|
G|------------------------------------------------------------------------8----|
D|-----------------------------------------------------------------------------|
A|-----------------------------------------------------------------------------|
E|-----------------------------------------------------------------------------|
B|-----------------------------------------------------------------------------|

e|-151299-16131010-17141111-18151212--201917----------------------------------|
B|-------------------------------------------201917---------------------------|
G|--------------------------------------------------191716--------------------|
D|---------------------------------------------------------191716-------------|
A|----------------------------------------------------------------191715-14---|
E|----------------------------------------------------------------------------|
B|----------------------------------------------------------------------------|


~MKH SOLO~ (these notes are all triplets)
e|-12-8----8------------------------------------------------------------------------------------|
B|------12---12-8-12-8----8---------------------------------------------------------------------|
G|---------------------11---11-9-11-9----9------------------------------------------------------|
D|------------------------------------10---10-9-10-9----9-----------------------/10-9--/14-13---|
A|---------------------------------------------------12---12-10----/7-6--/10-9------------------|
E|----------------------------------------------------------------------------------------------|
B|----------------------------------------------------------------------------------------------|

e|------------------------------------------------------------------------------------------|
B|------------------------------------------------------------------------------------------|
G|-----------------------------------------------------------------121416121416-------------|
D|--------------------------131416131416--------------131416131416--------------131416131416|
A|-------------121415121415--------------121415121415---------------------------------------|
E|121415121415------------------------------------------------------------------------------|
B|------------------------------------------------------------------------------------------|

-------------|
-------------|
121416121416-|
-------------|
-------------|
-------------|
-------------|

e|--------/20-19---12----14----15----14----12----10----8-----7-------|
B|-----------------15b17-17b19-18b20-17b19-15b17-13b15-11b13-10b12---|
G|-/17-16------------------------------------------------------------|
D|-------------------------------------------------------------------|
A|-------------------------------------------------------------------|
E|-------------------------------------------------------------------|
B|-------------------------------------------------------------------|

e|-19p15------15h19p15--17p14------14h17p14--15p12------12h15p12--14p11------11h14p11---|
B|------17--17---------------15--15---------------13--13---------------12--12-----------|
G|--------16-------------------14-------------------12-------------------11-------------|
D|--------------------------------------------------------------------------------------|
A|--------------------------------------------------------------------------------------|
E|--------------------------------------------------------------------------------------|
B|--------------------------------------------------------------------------------------|

e|-19p15------15h19p15--17p14------14h17p14--15p12------12h15p12--17b19-15h17p15-(14b15)-----|
B|------17--17---------------15--15---------------13--13--------------------------15b17------|
G|--------16-------------------14-------------------12---------------------------------------|
D|-------------------------------------------------------------------------------------------|
A|-------------------------------------------------------------------------------------------|
E|-------------------------------------------------------------------------------------------|
B|-------------------------------------------------------------------------------------------|
MY GOD THAT WAS HARD!!


It's taken me ages so please enjoy and rate :P
Suggest correction
What's this?
You can suggest a correction to this tab. Community and Mods will review your correction and vote to approve or reject it.
comments
print report bad tab
8 comments total. Showing first comments.
+1 reply
headfirst 617 wrote on June 25 2009, 10:38 am

For Riff D, while this song is played on a seven string, i believe the Guitar 2 part is actually played an octave higher

+1 reply
killakush 30 wrote on October 7 2009, 02:56 pm

seems really close to perfect

0 reply
Megadeth Mani4c 49 wrote on October 26 2009, 04:10 pm

Nice job, i dont have a 7 string so i just play the solos and those seem quite right to me. thanks

guest
You may want to rate the tab now too:
select rating
Please do not post tabs as comments. Select "correction" instead!