Oops, an error
Loading. Please wait.

Into The Mouth Of Hell We March bass

version 2
version 2

Whole song

by Trivium
121 views 1 this week
no commentswrite comment
1 2 3 4 5
3 more votes to show rating
add to favorites
×
Save as Personal and add changes to this tab that will be seen only by you. Learn more ›
×
You can save this tab as Personal to edit and correct it or add notes. All changes will be seen only by you. Learn more »
launch autoscroll
font size
0
reset
guitar tuner
backing track
0:00
0:00
edit
Autoscroll
slow
fast
+/-
esc
set tempo
stop
You need a 5-string bass for this song, with the standard tuning.
G
D
A
E
B

Or, if you don't have a five string, you need to tune your bass to standard B tuning,
and in the part where I've put 
G|---------------------------------4-4-4-4-4-4-4-4-7-7-7-7-7-7-7-7-9\-|
you just play it on your D string from the ninth, twelveth and fourteenth fret,
and the part following it from thirteenth and fourteenth fret.

0:00
G|------------------------------------------------------|
D|------------------------------------------------------|
A|------------------------------------------------------|
E|------------------------------------------------------|
B|-1-1-1--111-111-1-1--113-335-5-5--555-555-5-5--553-33-|(x2)

G|------------------------------------------------------|
D|------------------------------------------------------|
A|------------------------------------------------------|
E|------------------------------------------------------|
B|-1-1-1--1-1-111-1-1--1113335-5-5--5-5-555-5-5--555333-|(x2)

0:27
G|-----------------------------------------------------------------------------------------|
D|-----------------------------------------------------------------------------------------|
A|-3--3-3-3-3-3--3-3-3-3-3--3-3-3-3-3--3-5-5-5-7--7-7-7-7-7--7-7-7-7-7--7-7-7-7-7--7-7-7-7-|
E|-----------------------------------------------------------------------------------------|
B|-----------------------------------------------------------------------------------------|

G|-----------------------------------------------------------------------------------------|
D|-----------------------------------------------------------------------------------------|
A|-3--3-3-3-3-3--3-3-3-3-3--3-3-3-3-3--3-5-5-5-7--7-7-7-7-7--7-7-7-7-7--7-7-7-7-7--7-5-5-5-|
E|-----------------------------------------------------------------------------------------|
B|-----------------------------------------------------------------------------------------|

0:40
G|-------------------------------------------------------------------------------------------------|
D|-------------------------------------------------------------------------------------------------|
A|-3-3-3-3-3-3-3-3-3-3-3-3-3-3-3-3-3-3-3-3-3-3-3-3-7-7-7-7-7-7-7-7-7-7-7-7-7-7-7-7-7-7-7-7-7-7-7-7-|
E|-------------------------------------------------------------------------------------------------|
B|-------------------------------------------------------------------------------------------------|(x2)

0:54
G|-----------------------------------------------------------------------------------------|
D|-----------------------------------------------------------------------------------------|
A|-3--3-3-3-3-3--3-3-3-3-3--3-3-3-3-3--3-5-5-5-7--7-7-7-7-7--7-7-7-7-7--7-7-7-7-7--7-5-5-5-|
E|-----------------------------------------------------------------------------------------|
B|-----------------------------------------------------------------------------------------|

G|-----------------------------------------------------------------------------------------|
D|-----------------------------------------------------------------------------------------|
A|-3--3-3-3-3-3--3-3-3-3-3--3-3-3-3-3--3-5-5-5-7--7-7-7-7-7--7-7-7-7-----------------------|
E|-----------------------------------------------------------------------------------------|
B|-------------------------------------------------------------------8-888-8-8-7-7-7-5-5-5-|

1:07
G|-----------------------------------------------------------------------------------------|
D|-----------------------------------------------------------------------------------------|
A|-3--3-3-3-3-3--3-3-3-3-3--3-3-3-3-3--3-5-5-5-7--7-7-7-7-7--7-7-7-7-7--7-7-7-7-7--7-5-5-5-|
E|-----------------------------------------------------------------------------------------|
B|-----------------------------------------------------------------------------------------|

G|-------------------------------------------------------------------------------------------|
D|-------------------------------------------------------------------------------------------|
A|-3--3-3-3-3-3--3-3-3-3-3--3-3-3-3-3--3-5-5-5-7--7-7-7-7-7--7-7-7-7-------------------------|
E|-------------------------------------------------------------------------------7-7-7-7-7-7-|
B|-------------------------------------------------------------------8-8-8-8-8-8-------------|

1:21
G|-----------------------------------------------------------|
D|-----------------------------------------------------------|
A|-----------------------------------------------------------|
E|-----------------------------------------------------------|
B|-1--1--3--3-333--5--3--5--5---1--1--3--3-333--5--3--5--3-3-|

G|---------------------------------------------------------|
D|---------------------------------------------------------|
A|---------------------------------------------------------|
E|-------------------------------------------2--3--2--0----|
B|-1--1--3--3-333--5--3--5--5---1--1--3--3-33-----------3--|

1:34
G|-----------------------------------------------------------------------------------------|
D|-----------------------------------------------------------------------------------------|
A|-3--3-3-3-3-3--3-3-3-3-3--3-3-3-3-3--3-5-5-5-7--7-7-7-7-7--7-7-7-7-7--7-7-7-7-7--7-5-5-5-|
E|-----------------------------------------------------------------------------------------|
B|-----------------------------------------------------------------------------------------|

G|-------------------------------------------------------------------------------------------------|
D|-------------------------------------------------------------------------------------9-9-9-9-9-9-|
A|-3-3-3-3-3-3-3-3-3-3-3-3-3-3-3-3-3-3-3-3-3-3-3-3-7-7-7-7-7-7-7-7-7-7-7-7-7-7-7-7-7-7-------------|
E|-------------------------------------------------------------------------------------------------|
B|-------------------------------------------------------------------------------------------------|

1:48
G|-----------------------------------------------------------------------------------------|
D|-----------------------------------------------------------------------------------------|
A|-3--3-3-3-3-3--3-3-3-3-3--3-3-3-3-3--3-5-5-5-7--7-7-7-7-7--7-7-7-7-7--7-7-7-7-7--7-5-5-5-|
E|-----------------------------------------------------------------------------------------|
B|-----------------------------------------------------------------------------------------|

G|-----------------------------------------------------------------------------------------|
D|-----------------------------------------------------------------------------------------|
A|-3--3-3-3-3-3--3-3-3-3-3--3-3-3-3-3--3-5-5-5-7--7-7-7-7-7--7-7-7-7-----------------------|
E|-----------------------------------------------------------------------------------7-7-7-|
B|-------------------------------------------------------------------8-888-8-8-7-7-7-------|

2:01
G|-----------------------------------------------------------------------------------------|
D|-----------------------------------------------------------------------------------------|
A|-3--3-3-3-3-3--3-3-3-3-3--3-3-3-3-3--3-5-5-5-7--7-7-7-7-7--7-7-7-7-7--7-7-7-7-7--7-5-5-5-|
E|-----------------------------------------------------------------------------------------|
B|-----------------------------------------------------------------------------------------|

G|-------------------------------------------------------------------------------------|
D|-------------------------------------------------------------------------------------|
A|-3--3-3-3-3-3--3-3-3-3-3--3-3-3-3-3--3-5-5-5-7--7-7-7-7-7--7-7-7-7-------------------|
E|----------------------------------------------------------------------------7-777777-|
B|-------------------------------------------------------------------8-888888----------|

2:15
G|-----------------------------------------------------------|
D|-----------------------------------------------------------|
A|-----------------------------------------------------------|
E|-----------------------------------------------------------|
B|-1--1--3--3-333--5--3--5--5---1--1--3--3-333--5--3--5--3-3-|

G|---------------------------------------------------------|
D|---------------------------------------------------------|
A|---------------------------------------------------------|
E|-------------------------------------------2--3--2--0----|
B|-1--1--3--3-333--5--3--5--5---1--1--3--3-33-----------3--|

2:28
G|--------------------------------------------------------------------------|
D|--------------------------------------------------------------------------|
A|--------------------------------------------------------------------------|
E|--------------------------------------------------------------------------|
B|-5----3----1----0--3--5-5-5-5\----3-3-3-3\----1-1-1-1----0-0-0-0--1-1-1-1-|

2:55
G|-------------------------------------------------------------------|
D|-------------5--7/9-7-5-7-5-------------------4--5/7-5-4-5-4-------|
A|----------/7---7------------7-5h7----------/5---5------------5-3h5-|
E|-------------------------------------------------------------------|
B|-5-5-5-5--------------------------3-3-3-3--------------------------|

G|---------------------------------------------------------------|
D|-------------2---3/5-4-2---2-----------------------------------|
A|----------/3---3---------3---3-2h3-----------------------------|
E|---------------------------------------------------------------|
B|-1-1-1-1---------------------------0-0-0-0-0--1--3-3-3-3-3--4--|

3:09
G|-----------------------------------------------------------------|
D|-----------------------------------------------------------------|
A|-7-7-7-7-7-7-7-7-7-7-7-7-7-7-7-7-5-5-5-5-5-5-5-5-5-5-5-5-5-5-5-5-|
E|-----------------------------------------------------------------|
B|-----------------------------------------------------------------|

G|-----------------------------------------------------------------|
D|-----------------------------------------------------------------|
A|-3-3-3-3-3-3-3-3-3-3-3-3-3-3-3-3-2-2-2-2-2-2-2-2-5-5-5-5-5-5-5-5-|
E|-----------------------------------------------------------------|
B|-----------------------------------------------------------------|

3:23
G|-----------------------------------------------------------------|
D|---------------------------------4-4-4-4-4-4-4-4-4-4-4-4-4-4-4-4-|
A|-7-7-7-7-7-7-7-7-7-7-7-7-7-7-7-7---------------------------------|
E|-----------------------------------------------------------------|
B|-----------------------------------------------------------------|

G|---------------------------------4-4-4-4-4-4-4-4-7-7-7-7-7-7-7-7-9\-|
D|-5-5-5-5-5-5-5-5-5-5-5-5-5-5-5-5------------------------------------|
A|--------------------------------------------------------------------|
E|--------------------------------------------------------------------|
B|--------------------------------------------------------------------|

3:40
G|-9--8\--|
D|--------|
A|--------|
E|--------|
B|--------|

G|-----------------------------------------------------------------------|
D|-----------------------------------------------------------------------|
A|-----------------------------------------------------------------------|
E|-0-000-0-000-0h5h7-0-000-0-000-0h7h8-0-000-0-000-0h8h10-0-000-0-12-11\-|
B|-----------------------------------------------------------------------|(x3)

3:55
G|------------------|
D|------------------|
A|------------------|
E|------------------|
B|-5---3---1---0----|(x2)

G|-----------------------------------------------------------------------|
D|-----------------------------------------------------------------------|
A|-----------------------------------------------------------------------|
E|-0-000-0-000-0h5h7-0-000-0-000-0h7h8-0-000-0-000-0h8h10-0-000-0-12-11\-|
B|-----------------------------------------------------------------------|

G|-----------------------------------------------------------------------|
D|-----------------------------------------------------------------------|
A|----------------------------------------------------------------14-12\-|
E|-0-000-0-000-0h5h7-0-000-0-000-0h7h8-0-000-0-000-0h8h10-0-000-0--------|
B|-----------------------------------------------------------------------|

4:11
G|------------------|
D|------------------|
A|------------------|
E|------------------|
B|-5---3---1---0----|(x2)

G|-----------------------------------------|
D|-----------------------------------------|
A|-----------------------------------------|
E|-7--3/5-7--5--2/3-5--3--0h2-3--2------2--|
B|----------------------------------3/5----|(x2)

4:25
G|------------|
D|------------|
A|--------5-7-|
E|------------|
B|-1(rest)----|

G|--------------------------------------------|
D|--------------------------------------------|
A|-7-7777--7-7-7777--7-7-7777--7-7-7775-5-5-5-|
E|--------------------------------------------|
B|--------------------------------------------|

G|---------------------------------------------------------------------------------------------------|
D|-------------------------------------------------------7---7-------5---5-------10---10-------9---9-|
A|-3-3-3-3-3-3-3-3-3-3-3-3-3-3-3-3-3-3-3-3-3-3-3-3-7-7-7---7---7-7-7---7---7-7-7----7----7-7-7---7---|
E|---------------------------------------------------------------------------------------------------|
B|---------------------------------------------------------------------------------------------------|

4:39
G|-----------------------------------------------------------------------------------------|
D|-----------------------------------------------------------------------------------------|
A|-3--3-3-3-3-3--3-3-3-3-3--3-3-3-3-3--3-5-5-5-7--7-7-7-7-7--7-7-7-7-7--7-7-7-7-7--7-5-5-5-|
E|-----------------------------------------------------------------------------------------|
B|-----------------------------------------------------------------------------------------|

G|-------------------------------------------------------------------------------------------|
D|-------------------------------------------------------------------------------------------|
A|-3--3-3-3-3-3--3-3-3-3-3--3-3-3-3-3--3-5-5-5-7--7-7-7-7-7--7-7-7-7-------------------------|
E|-------------------------------------------------------------------------------7-7-7-7-7-7-|
B|-------------------------------------------------------------------8-8-8-8-8-8-------------|

4:52
G|-----------------------------------------------------------|    \
D|-----------------------------------------------------------|    |
A|-----------------------------------------------------------|    |
E|-----------------------------------------------------------|    |
B|-1--1--3--3-333--5--3--5--5---1--1--3--3-333--5--3--5--3-3-|    |
                                                                  (x2)
G|---------------------------------------------------------|      |
D|---------------------------------------------------------|      |
A|---------------------------------------------------------|      |
E|-------------------------------------------2--3--2--0----|      |
B|-1--1--3--3-333--5--3--5--5---1--1--3--3-33-----------3--|      /

5:19
G|------------------------------|
D|------------------------------|
A|------------------------------|
E|------------------------------|
B|-1-----3-5-----3-1-----3-5----|

   5:33-----3:36----End of song
G|------------------------------|
D|------------------------------|
A|------------------------------|
E|------------------------------|
B|-5--------5-------------------|

            
            
Suggest correction
Creating personal tab
Creating personal tab
You can edit any tab online and save it as your Personal.

You can edit, replace or remove any tab part or add personal notes – all changes will be seen only by you.

Personal tabs can be accessed anytime from any device, even offline.
Learn more »
Give kudos to tab author, rate the tab!
1 2 3 4 5
comments
print report bad tab
guest
You may want to rate the tab now too:
select rating
Wanna post a correction for this tab? Suggest correction