Oops, an error
Loading. Please wait.

Into The Mouth Of Hell We March Tab

version 2
version 2

Whole song

7,219 views 12 this week
4 commentsread comments
1 2 3 4 5
excellent!
x 10
add to favorites
launch autoscroll
font size
0
reset
how to read this tab
guitar tuner
Autoscroll
slow
fast
+/-
esc
set tempo
stop
Help us to improve Ultimate-Guitar.com Take our survey!
×
Contributor
Difficulty
slipknot836 3,539
advanced
Band:  Trivium
Song:  Into The Mouth Of Hell We March
Album: Shogun
This song is played on a 7 string guitar (B,E,A,D,G,B,E) low to high

right, i got this from a total guitar magazine so guranteed 100% correct lol hope you enjoy!!!

PLEASE RATE :)

Update 1: "21:11 Friday, 27th August"
Intro was on the wrong string,
Intro harmony was added
Solo rhythm was added
Solo harmony was added

~:   vibrato
TCH: touch harmonic
X:   muted string
BU:  bend up
BR:  bend return
PM:  palm mute
h:   hammer on
p:   pull off
/:   slide up
\:   slide down
T:   tapping
TR:  tremelo pick

guitar 1 (corey beaulieu)
guitar 2 (matt heafy)

Intro
Guitar 1
E||--------------------------------|-------------|---------------------|  
B||--------------------------------|-------------|---------------------|
G||--------------------------------|-1st-ending--|-2nd-ending----------|
D||-4-BU(5BR4)------4-BU(5BR4)-----|-4--4/5--2~~-|-4--5--/9--(21)TCH~~-|
A||------------5-3-------------5-3-|-------------|---------------------|
E||--------------------------------|-------------|---------------------|
B||--------------------------------|-------------|---------------------|

Intro
Harmony
E||--------------------------------|-1st-ending--|-2nd-ending-----------|
B||-7-BU(8BR7)------7-BU(8BR7)-----|-7--7/8--5~~-|-7--8--/12--(24)TCH~~-|
G||------------7-5-------------7-5-|-------------|----------------------|
D||--------------------------------|-------------|----------------------|
A||--------------------------------|-------------|----------------------|
E||--------------------------------|-------------|----------------------|
B||--------------------------------|-------------|----------------------|


Guitar 2
E||-------------------------------------------------------------|
B||-------------------------------------------------------------|
G||-------------------------------------------------------------|
D||-5-5-5----5----4-4-4-----------4-4-4----4h5----2-2-2---------|
A||-3-3-3----3----3-3-3----3/5----2-2-2----2------2-2-2----5----|
E||-X-X-X----X----X-X-X-----------0-0-0----0------0-0-0----5----|
B||-1-1-1-XX-1-XX-1-1-1-XX-1/3-XX-------XX-----XX-------XX-3-XX-|


Verse 1
Guitar 1
    PM---   --   --   -   -----   --   --   -
E||---------------------------------------------|
B||---------------------------------------------|
G||---------------------------------------------|
D||------------5--------4------------5--------2-|
A||-------3---------3-----------3---------------|
E||---------------------------------------3-----|
B||-1-111---11---11---1---1-111---11---11---1---|

Guitar 1 harmony
    PM---   -   -----   -   -----   -   -----   -
E||-------------------------------------------------|
B||-------------------------------------------------|
G||-------------------------------------------------|
D||-------4---4-------2---2-------7---7-------5---5-|
A||-------3---3-------3---3-------7---7-------7---7-|
E||-0-000---0---0-000---0---0-000---0---0-000---0---|
B||-------------------------------------------------|

Guitar 2 harmony
    PM---    -    -----    -    -----    -    -----    -
E||----------------------------------------------------------|
B||----------------------------------------------------------|
G||----------------------------------------------------------|
D||----------------------------------------------------------|
A||-------12---12-------10---10-------15---15-------14---14--|
E||-0-000----0----0-000----0----0-000----0----0-000----0-----|
B||----------------------------------------------------------|

if you wanna play both the ending harmonies together its...
E||-----------------------------------------------------|
B||-----------------------------------------------------|
G||-----------------------------------------------------|
D||-------7---7-------5---5-------10---10--------9----9-|
A||-------9---9-------7---7-------12---12-------10---10-|
E||-0-000---0---0-000---0---0-000----0----0-000----0----|
B||-----------------------------------------------------|


Verse 2 part 1
Both guitars
E||------------------------------------------------------------------------|
B||------------------------------------------------------------------------|
G||------------------------------------------------------------------------|
D||-------5-4-5-7-5-4-5-4---------5-4-5-7-5-4-5-4---------5-4-5-7-5-4-5-4--|
A||-3-333-----------------5-3-333-----------------5-7-777----------------5-|
E||------------------------------------------------------------------------|
B||------------------------------------------------------------------------|

E||---------------------------|
B||---------------------------|
G||----first-ending-----------|
D||------5-4-5-7-5-4-5-4------|
A||7-777-----------------5----|
E||---------------------------|
B||---------------------------|

E||------------------------------|
B||--second-ending---------------|
G||-5-4---4----------------------|
D||-----7---7-5-7-5-4-5-4--------|
A||-----------------------7------|
E||------------------------------|
B||------------------------------|

Verse 2 part 2
Both guitars
E||------------------------------------------------------------------------|
B||------------------------------------------------------------------------|
G||-------4-2-4-5-4-2-4-2---------4-2-4-5-4-2-4-2---------4-2-4-5-4-2-4-2--|
D||-2-222-----------------4-2-222-----------------4-5-555----------------4-|
A||------------------------------------------------------------------------|
E||------------------------------------------------------------------------|
B||------------------------------------------------------------------------|

E||----------------------------|
B||-----first-ending-----------|
G||-------4-2-4-5-4-2-4-2------|
D||-5-555-----------------5----|
A||----------------------------|
E||----------------------------|
B||----------------------------|

E||-2----------------------------|
B||---5-3-5-3---3----------------|
G||-----------5---5-4-5-4-2------|
D||----second-ending-------------|
A||------------------------------|
E||------------------------------|
B||------------------------------|


Chorus
Guitar 1
E||--7----------------|-7--------------------|
B||----8-7-8----------|---8-7-8-------7------|
G||----------9-7--/9~-|---------9-7-9---9-9\-|
D||-------------------|----------------------|
A||-------------------|----------------------|
E||-------------------|----------------------|
B||-------------------|----------------------|

Guitar 2
E||--------------------------------------------------|
B||--------------------------------------------------|
G||--------------------------------------------------|
D||--------------------------------------------------|
A||-3-3-5--5-55-7-5-7--3-3-5--5-55-7-5-7-7-5---------|
E||-3-3-5--5-55-7-5-7--3-3-5--5-55-7-5-7-7-5---------|
B||-1-1-3--3-33-5-3-5--1-1-3--3-33-5-3-5-5-3---------|


Interlude
Both guitars
E||-------------------------|--------------------------|
B||--8\5-5-5h7----7-7/8-7-5-|-7\3-5-5/7---7-7/8-7-5----|
G||------------7~-----------|-----------7-----------7~-|
D||-------------------------|--------------------------|
A||-------------------------|--------------------------|
E||-------------------------|--------------------------|
B||-------------------------|--------------------------|

Middle section
Guitar 1
E||-7-0------|-7-0--------------|-7-0-------------------|
B||-----7-8~-|-----7-8-10-8-7---|-----7-8-10-8h10p8p7---|
G||----------|----------------9-|---------------------9-|
D||----------|-first,-second----|-fourth-ending---------|
A||----------|-and-third-ending-|-----------------------|
E||----------|------------------|-----------------------|
B||----------|------------------|-----------------------|

Middle section rhythm
Guitar 2
E||---------------------------------------------------------------------|
B||---------------------------------------------------------------------|
G||---------------------------------------------------------------------|
D||---------------------------------------------------------------------|
A||-7---5---3---2--5--7-7-7-7/--5-5-5-5/--3-3-3-3--2-2-2-2--5-5-5-5-----|
E||-7---5---3---2--5--7-7-7-7/--5-5-5-5/--3-3-3-3--2-2-2-2--5-5-5-5-----|
B||-5---3---1---0--3--5-5-5-5/--3-3-3-3/--1-1-1-1--0-0-0-0--3-3-3-3-----|

E||--------------------------------------------------------------------------------------|
B||--------------------------------------------------------------------------------------|
G||--------------------------------------------------------------------------------------|
D||-----------5---7/9\7-5-7-5-----------------4---5/7\5-4-5-4-----------------2---4/5\4--|
A||-7-7-7-7-7---7-------------7-5h7-5-5-5-5-5---5-------------5-3h5-3-3-3-3-3---3--------|
E||-7-7-7-7-------------------------5-5-5-5-------------------------3-3-3-3--------------|
B||-5-5-5-5-------------------------3-3-3-3-------------------------1-1-1-1--------------|

E||-------------|
B||-------------|
G||-------------|
D||-2---2-------|
A||---3---3-2h3-|
E||-------------|
B||-------------|

E||----------------------|
B||----------------------|
G||----------------------|
D||----/5-4--------/4-5--|
A||-2-----------5--------|
E||-2-----------5--------|
B||-0-----------5--------|


descending riff
both guitars play this riff the first time
but the second time corey plays a harmony
E||----------------------|----------------------|----------------------|-first-ending--|
B||----------------------|-------------------3~-|----------------------|---------------|
G||-------4~-2-----------|------4~-2------------|-------4~-2-----------|-4-2--5-4------|
D||-2-4-5------5-4~-5-2~-|-0-4-5------5-4~-5----|---4-5------5-4~-5-2~-|-----------5-2-|
A||----------------------|----------------------|-3--------------------|---------------|
E||----------------------|----------------------|----------------------|---------------|
B||----------------------|----------------------|----------------------|---------------|

    TR-----------------
E||----------------------|
B||----------3-----3--5\-|
G||-4--2--4-----4--------|
D||----------------------|
A||----------------------|
E||----------------------|
B||----------------------|

harmony
E||------------------------------------------------------------------------------|
B||-------3------------------3---------3--------3--------------------------------|
G||---2-4---5-4-2-4------2-4---5-4-2-4------2-4---5-4-2-4-----7-5-7-11-7-11-12---|
D||-5---------------5--4----------------------------------5----------------------|
A||---------------------------------------3--------------------------------------|
E||------------------------------------------------------------------------------|
B||------------------------------------------------------------------------------|


pre solo
Guitar 2
E||------------------------------------------------------------------------|
B||------------------------------------------------------------------------|
G||------------------------------------------------------------------------|
D||------------------------------------------------------------------------|
A||-----------------------------------------------------------------12-12\-|
E||-000-0-000-0h5h7--0-000-0-000-0h7h8--0-000-0-000-0h8h10--0-000-0-12-12\-|
B||------------------------------------------------------------------------|


solo 1 CKB
    TR-------------------------
E||-12--11h12p11--8h11p8--7h8p7---|
B||-------------------------------|
G||-------------------------------|
D||-------------------------------|
A||-------------------------------|
E||-------------------------------|
B||-------------------------------|

E||-201816-------------------------------------------|
B||--------20171513----------------------------------|
G||-----------------161412---------------------------|
D||------------------------141210--------------------|
A||-------------------------------141210-------------|
E||--------------------------------------14121112~~\-|
B||--------------------------------------------------|

E||----------------------------------------------------------14h15p14h15p14/17-|
B||----------------------------------------12h13p12-12h13p12-------------------|
G||----------------------11h12p11-11h12p11-------------------------------------|
D||--------9h10p9-9h10p9-------------------------------------------------------|
A||-9h10p9---------------------------------------------------------------------|
E||----------------------------------------------------------------------------|
B||----------------------------------------------------------------------------|

E||-20p17----17-20\17p14-17p14----14-17\14p11----14p11-------------------|
B||-------19-------------------16-------------13-------13----------------|
G||-------------------------------------------------------14-11----------|
D||-------------------------------------------------------------14-13~~~-|
A||----------------------------------------------------------------------|
E||----------------------------------------------------------------------|
B||----------------------------------------------------------------------|

E||------------------------------------|
B||-------------------7-8-7-8-10-8-7-8-|
G||-------------9-8-9------------------|
D||------9----9------------------------|
A||-7-10---10--------------------------|
E||------------------------------------|
B||------------------------------------|

     T     T        T              T          T           T
E||-14p12-14p12-11-13p11\-------------------------------------------------|
B||-----------------------8h10h12-13p12p10p8------------------------------|
G||------------------------------------------12p11p9p8h9-11p9p8-----------|
D||-------------------------------------------------------------7---------|
A||----------------------------------------------------------------9--7~~-|
E||-----------------------------------------------------------------------|
B||-----------------------------------------------------------------------|

E||-323000-535000-757000-878000-1212111188111188778877557755-----------|
B||---------------------------------------------------------8877554~~--|
G||--------------------------------------------------------------------|
D||--------------------------------------------------------------------|
A||--------------------------------------------------------------------|
E||--------------------------------------------------------------------|
B||--------------------------------------------------------------------|

E||-12-8-10-12-14-10-12-14-15-12-14-15-17-14-15-201917-------------------------|
B||---------------------------------------------------201917-------------------|
G||---------------------------------------------------------191716-------------|
D||---------------------------------------------------------------191716-------|
A||---------------------------------------------------------------------1918---|
E||----------------------------------------------------------------------------|
B||----------------------------------------------------------------------------|


solo 2 MKH
(these notes are all triplets)
E||------------------------------------------------------------------------|
B||17p13----13-------------------------------------------------------------|
G||------16----16p12-16p12----12-------------------------------------------|
D||------------------------16----16p14-16p14----14-------------------------|
A||------------------------------------------15----15p14-15p14----14-------|
E||------------------------------------------------------------15----15p14-|
B||------------------------------------------------------------------------|

E||-------------------------------|
B||-------------------------------|
G||-------------------------------|
D||------------------------14--13-|
A||----------------15--14---------|
E||-12~~~-/15--14-----------------|
B||-------------------------------|

E||-------------------------------------------------------------------------------------|
B||-------------------------------------------------------------------------------------|
G||------------------------------------------------------------121416121416-------------|
D||------------------------131416131416------------131416131416------------131416131416-|
A||------------121415121415------------121415121415-------------------------------------|
E||121415121415-------------------------------------------------------------------------|
B||-------------------------------------------------------------------------------------|

E||--------------|
B||--------------|
G||-121416121416-|
D||--------------|
A||--------------|
E||--------------|
B||--------------|

E||--------/20-19-|
B||---------------|
G||-/17-16--------|
D||---------------|
A||---------------|
E||---------------|
B||---------------|

MKH
E||-12----14----15----14----12----10----8-----7-----|
B||-15b17-17b19-18b20-17b19-15b17-13b15-11b13-10b12-|
G||-------------------------------------------------|
D||-------------------------------------------------|
A||-------------------------------------------------|
E||-------------------------------------------------|
B||-------------------------------------------------|

Harmony
E||-15----17----19----17----15----14----12----10----|
B||-18b20-20b22-22b24-20b22-18b20-17b19-15b17-13b15-|
G||-------------------------------------------------|
D||-------------------------------------------------|
A||-------------------------------------------------|
E||-------------------------------------------------|
B||-------------------------------------------------|

MKH
E|-19p15------15h19p15--17p14------14h17p14--15p12------12h15p12--14p11------11h14p11---|
B|------17--17---------------15--15---------------13--13---------------12--12-----------|
G|--------16-------------------14-------------------12-------------------11-------------|
D|--------------------------------------------------------------------------------------|
A|--------------------------------------------------------------------------------------|
E|--------------------------------------------------------------------------------------|
B|--------------------------------------------------------------------------------------|

e|-19p15------15h19p15--17p14------14h17p14--15p12------12h15p12--14BU(15)--12h14p12---------|
B|------17--17---------------15--15---------------13--13-----------------------------15b17~~-|
G|--------16-------------------14-------------------12---------------------------------------|
D|-------------------------------------------------------------------------------------------|
A|-------------------------------------------------------------------------------------------|
E|-------------------------------------------------------------------------------------------|
B|-------------------------------------------------------------------------------------------|

Harmony
There is no harmony for the bend at the end
of the sweep riff
E||-22p19------19h22p19--20p17------17h20p17-|
B||------20--20---------------19--19---------|
G||--------19-------------------17-----------|
D||------------------------------------------|
A||------------------------------------------|
E||------------------------------------------|
B||------------------------------------------|

E||-19p15------15h19p15--17p14------14h17p14-|
B||------17--17---------------15--15---------|
G||--------16-------------------14-----------|
D||------------------------------------------|
A||------------------------------------------|
E||------------------------------------------|
B||------------------------------------------|

Solo Rhythm

First it's the pre solo riff
then this riff...
E||----------------------||
B||---------------------o||
G||----------------------||
D||----------------------||
A||-7----5----3----2-----||
E||-7----5----3----2----o||
B||-5----3----1----0-----||
you then play the pre solo riff again
then play this agin


song in order:
intro
verse 1
verse 2 part 1
verse 2 part 2
chorus
interlude
verse 1
verse 2 part 1
verse 2 part 2
chorus x2
middle section/outro
descending riff
pre solo
solo 1
solo 2
verse 1
verse 2 part 2
chorus x2
interlude x2
intro
middle section/outro
Suggest correction What's this?
You can suggest a correction to this tab. Community and Mods will review your correction and vote to approve or reject it.
comments
print report bad tab
4 comments total. Showing first comments.
+2 reply
JB95 1,056 wrote on September 26 2010, 04:11 pm

Seven strings? What the hell?
Anyways, great job!

+1 reply
Yakisobayum567 88 wrote on May 6 2013, 05:02 pm

What a great song, great solo, it's all perfect!
Definitly will be a great challenge, definitly try it after I get Kirisute Gomen done! I don't have a seven string but these give some some wicked 6-string solo runs!

+1 reply
Yakisobayum567 88 wrote on May 6 2013, 05:09 pm

Or...maybe i'll do this first...darn it...this is really hard they're both good solos...

I want to post or [tab]
guest
You may want to rate the tab now too:
select rating
Please do not post tabs as comments. Select "correction" instead!