Oops, an error
Loading. Please wait.

Iron Maiden Tab

version 1
version 1

Whole song

Interactive

11,538 views 1 this week
1 commentread comment
1 2 3 4 5
please rate
add to favorites
launch autoscroll
font size
0
reset
how to read this tab
guitar tuner
Autoscroll
slow
fast
+/-
esc
set tempo
stop
Help us to improve Ultimate-Guitar.com Take our survey!
×
Author
Band : Trivium
Song : Iron Maiden
Album: Shogun(Special Edition), Kerrang Maiden Heaven
Tab  : Jimmy Strong
Email: Strng.james@Gmail.com

Please Note (*I ONLY TABBED THE PARTS THAT ARE DIFFERENT FROM MAIDEN*)
http://www.ultimate-guitar.com/tabs/i/iron_maiden/iron_maiden_power_tab.htm


Verse
e|--------------|
b|------10------|
g|------9-------| X 5
d|------7-------|
a|0-0-0---0-0-0-|
e|--------------|

e|-------------------|
b|------8------------|
g|------7------- X 5-|
d|------5------------|
a|0-0-0---0-0-0------|
e|-------------------|


Chorus

e|----------------------------|
b|----------------------------|
g|-5---5---------7---7--------|
d|-5---5--5---5--7---7--77777-|
a|-3-x-3x-5---5--5-x-5x-55555-|
e|--------3-x-3x--------------|
(                      pm----)
Suggest correction
Give kudos to tab author, rate the tab!
1 2 3 4 5
comments
print report bad tab
1 comment total.
0 reply
wtflolbbq 334 wrote on March 22 2009, 03:39 pm

Verse
e|-----------------------------|
b|-----------------------------|
g|----9-----9---9-----9---9----|
d|----7-----7---7-----7---7----|
a|----7-----7---7-----7---7----|
e|5-5---5-5---5---5-5---5------|

e|-----------------------------|
b|-----------------------------|
g|----7-----7---7-----7---7----|
d|----5-----5---5-----5---5----|
a|----5-----5---5-----5---5----|
e|3-3---3-3---3---3-3---3------|

and next time post full tab? that way we don't have to have two browsers up to play one song.
ending of chorus is also kinda sketchy

guest
You may want to rate the tab now too:
select rating
Wanna post a correction for this tab? Suggest correction