Oops, an error
Loading. Please wait.

Like Callisto To A Star In Heaven Tab

version 2
version 2
6,769 views 1 this week
2 commentsread comments
1 2 3 4 5
accurate
x 7
add to favorites
launch autoscroll
font size
0
reset
how to read this tab
guitar tuner
Tab Pro tools
  • play this tab
  • loop segment
  • change instrument
  • show fretboard
  • metronome
Autoscroll
slow
fast
+/-
esc
set tempo
stop
Contributor
-------------------------------------------------------------------------------
                Like Callisto To A Star In Heaven - Trivium
-------------------------------------------------------------------------------
Tabbed by: #Black Label
Email: miguelf90@hotmail.com

Tuning: EADGBE

This is my first tab, and I don't play for a long time, so please excuse me for 
the not tabbing the solo, which I will try to tab out later if I can learn how 
to sweep pick, and excuse me for any mistakes, tough I think most of this is 
correct. Please coment. For corrections or suggestions, e-mail me.

Intro

e|---------------------------------------------------------------------------|
B|---------------------------------------------------------------------------|
G|-------------7-9-----------------7-9---------------------------------------|
D|--9-7----7-9-----10---9-7----7-9-----10-9-9--------------------------------|
A|7-----10------------7-----10-----------------------------------------------|
E|---------------------------------------------------------------------------|


Riff 1

e|---------------------------------------------------------------------------|
B|---------------------------------------------------------------------------|
G|---------------------------------------------------------------------------|
D|---2-0h3----2-0h3----2-0h3-----------------------2-0h3----2-0h3----2-0h3---|
A|------------------------------------3-2------------------------------------|
E|00-------00-------00-------00-4-3-4-----4-3-1-00-------00-------00-------00|

e|---------------------------------------------------------------------------|
B|---------------------------------------------------------------------------|
G|14-14-14-14-13-13-13-13----------------------------------------------------|
D|---------------------------2-0h3----2-0h3----20h3--------------------------|
A|12-12-12-12-11-11-11-11------------------------------------3-2-------------|
E|------------------------00-------00-------00------00-4-3-4-----4-3-1-00----|

e|---------------------------------------------------------------------------|
B|---------------------------------------------------------------------------|
G|---------------------------17-17-17-17-16-16-16-16-------------------------|
D|2-0h3----2-0h3----2-0h3----------------------------------------------------|
A|---------------------------15-15-15-15-14-14-14-14-------------------------|
E|------00-------00-------00-------------------------------------------------|


Riff 2

e|---------------------------------------------------------------------------|
B|---------------------------------------------------------------------------|
G|---------------------------------------------------------------------------|
D|--------------------------2-------------------------------------3----------|
A|------------------------2---2-----------------------------------3----------|
E|0-0-0-0-0-0-0-0-4-3-1-0-------4-3-1-0-0-0-0-0-0-0-0-0-0-0-0-0-0-1----------|

e|---------------------------------------------------------------------------|
B|---------------------------------------------------------------------------|
G|---------------------------------------------------------------------------|
D|--------------------------2-------------------------3/5-5-3/5-5------------|
A|------------------------2---2-----------------------3/5-5-3/5-5------------|
E|0-0-0-0-0-0-0-0-4-3-1-0-------4-3-1-0-0-0-0-0-0-0-0-1/3-3-1/3-3------------|


Riff 3

e|---------------------------------------------------------------------------|
B|---------------------------------------------------------------------------|
G|---------------------------------------------------------------------------|
D|2-----3---------5-----6-2-----3-------0---0-2-3-2-2-----3---------5-----6--|
A|2-----3---------5-----6-2-----3-----0---0---------2-----3---------5-----6--|
E|0-0-0-1-0-0-0-0-3-0-0-4-0-0-0-1-0-0---------------0-0-0-1-0-0-0-0-3-0-0-4--|

e|---------------------------------------------------------------------------|
B|---------------------------------------------------------------------------|
G|---------------------------------------------------------------------------|
D|2-----3-----222-222-2-----3---------5-----6-2-----3-------0---0-2-3-2-2----|
A|2-----3-----222-222-2-----3---------5-----6-2-----3-----0---0---------2----|
E|0-0-0-1-0-0-000-000-0-0-0-1-0-0-0-0-3-0-0-4-0-0-0-1-0-0---------------0-0-0|

e|----------------------------------------------------0-1-0------------------|
B|--------------------------------------------0---0-3------------------------|
G|----------------------------------------------1----------------------------|
D|3---------5-----6-2-----3-------0---0-2-3-2--------------------------------|
A|3---------5-----6-2-----3-----0---0----------------------------------------|
E|1-0-0-0-0-3-0-0-4-0-0-0-1-0-0----------------------------------------------|


Chorus 1

e|---------------------------------------------------------------------------|
B|---------------------------------------------------------------------------|
G|--5-7---5-7----------------------------------------------------------------|
D|2-5-7-2-5-7----------------------------------------------------------------|
A|2-3-5-2-3-5----------------------------------------------------------------|
E|0-----0--------------------------------------------------------------------|


Chorus 2

e|---------------------------------------------------------------------------|
B|---------------------------------------------------------------------------|
G|-------------7-9---------------------7-9----7-7----------------------------|
D|--9-7----7-9-----10-9-9---9-7----7-9-----10--------------------------------|
A|7-----10----------------7-----10-------------------------------------------|
E|---------------------------------------------------------------------------|


Riff 4

e|---------------------------------------------------------------------------|
B|---------------------------------------------------------------------------|
G|99-99-9999999--10--10-10--10-10--13-13--16-16------------------------------|
D|---------------------------------------------------------------------------|
A|77-77-7777777--8---8--8---8--8---11-11--14-14------------------------------|
E|---------------------------------------------------------------------------|


Riff 4.2

e|---------------------------------------------------------------------------|
B|---------------------------------------------------------------------------|
G|99-99-9999999--10--10-10--10-10--16-16-16-14-14-14-------------------------|
D|---------------------------------------------------------------------------|
A|77-77-7777777--8---8--8---8--8---14-14-14-12-12-12-------------------------|
E|---------------------------------------------------------------------------|


Riff 5

e|---------------------------------------------------------------------------|
B|---------------------------------------------------------------------------|
G|---------------------------------------------------------------------------|
D|22-22-22-2-22-22-2-2-22-22-------------------------------------------------|
A|22-22-22-2-22-22-2-2-22-22-------------------------------------------------|
E|00-00-00-0-00-00-0-0-00-00-------------------------------------------------|


Solo Riff

e|---------------------------------------------------------------------------|
B|---------------------------------------------------------------------------|
G|---------------------------------------------------------------------------|
D|2-3-5-7-2-3-5-7-2-3-5-7-2-3-5-7--------------------------------------------|
A|2-3-5-7-2-3-5-7-2-3-5-7-2-3-5-7--------------------------------------------|
E|0-1-3-5-0-1-3-5-0-1-3-5-0-1-3-5--------------------------------------------|


Riff 5.2

e|---------------------------------------------------------------------------|
B|---------------------------------------------------------------------------|
G|---------------------------------------------------------------------------|
D|22-22-22222222-2-22-2-2-22-22----------------------------------------------|
A|22-22-22222222-2-22-2-2-22-22----------------------------------------------|
E|00-00-00000000-0-00-0-0-00-00----------------------------------------------|


Riff 6

e|---------------------------------------------------------------------------|
B|---------------------------------------------------------------------------|
G|---------------------------------------------------------------------------|
D|-----5------3--------------------------------------------------------------|
A|-----5------3--------------------------------------------------------------|
E|3333-3-1111-1--------------------------------------------------------------|



And this is the pattern:

Intro x2
Riff 1
Riff 2 x2
Riff 3
Intro
Chorus 1 x2
Riff 1
Riff 2 x2
Riff 3
Intro
Chorus 1 x2
Chorus 2 x2
Riff 4 x3
Riff 4.2
Riff 5 
Solo Riff
Riff 5.2 x2
Riff 4
Riff 4.2
Bass and drums only
Riff 6
Riff 1 (Only the second part of the riff)
Riff 3
Chorus 2 x4

End on:

e|---------------------------------------------------------------------------|
B|---------------------------------------------------------------------------|
G|---------------------------------------------------------------------------|
D|---2-0h3----2-0h3----2-0h3-------------------------------------------------|
A|---------------------------------------------------------------------------|
E|00-------00-------00-------------------------------------------------------|


| /  slide up
| \  slide down
| h  hammer-on
| p  pull-off
| ~  vibrato
| +  harmonic
| x  Mute note
===============================================================================
comments
print report bad tab
2 comments total.
+1 reply
Ghost Stalker wrote on April 5 2009, 03:19 pm

This appears to be a decent tab, and gives an easier way of playing the intro, which is handy, as I learned it in bout 20 mins, as for the rest of it, it's fairly accurate too, some bits I don't know how accurate they are as I haven't tried them, but all-in-all a good tab, don't really care bout the lack of solo, as I'm useless with them so I just playing the rhythm behind them.... but someones bound to bitch about how this is a useless tab just because it doesn't have the solo, regardless, as far as I'm concerned, 5 stars, thanks for uploading it :)

0 reply
sam 3000 wrote on May 20 2009, 09:08 am

awsome tab (Y) i like the way you set it out it mke it so much easyer to lern 5 stars :D

I want to post or [tab]
guest
You may want to rate the tab now too:
select rating
Please do not post tabs as comments. Select "correction" instead!