Oops, an error
Loading. Please wait.

Like Callisto To A Star In Heaven Tab

version 3
version 3

Whole song

Interactive

21,163 views 33 this week
4 commentsread comments
1 2 3 4 5
excellent!
x 7
add to favorites
launch autoscroll
font size
0
reset
how to read this tab
guitar tuner
Autoscroll
slow
fast
+/-
esc
set tempo
stop
Help us to improve Ultimate-Guitar.com Take our survey!
×
Contributor
Assaels 42
Standard Tuning (EADGBE) it’s not a 7-strings!

Intro 0:00 ~ 0:17

Melody [x2]
|--------------------------|------------------------------|
|--------------------------|------------------------------|
|----------------7-9-------|-----------------7-9----------|
|----9-7~----7-9-----10~---|-----9-7~----7-9-----10~-9-9~-|
|-7~------10---------------|--7~------10------------------|
|--------------------------|------------------------------|

Rhythm [x1]
|---------------------------|-----------------------------|
|---------------------------|-----------------------------|
|---------------------------|-----------------------------|
|-2~----3~---3--5~----7~--7-|-2~----3~---3--5~----7~--5-5-|
|-2~----3~---3--5~----7~--7-|-2~----3~---3--5~----7~--5-5-|
|-0~--0-1~---1--3~--3-5~--5-|-0~--0-1~---1--3~--3-5~--3-3-|


|---------------------------|-----------------------------|
|---------------------------|-----------------------------|
|---------------------------|-----------------------------|
|-2~----3~---3--5~----7~--7-|-2~----3~---3--5~-/7-7--\5-5-|
|-2~----3~---3--5~----7~--7-|-2~----3~---3--5~-/7-7--\5-5-|
|-0~--0-1~---1--3~--3-5~--5-|-0~--0-1~---1--3~-/5-5--\3-3-|


Main Riff [x2] 0:17 ~ 0:32
|---------------------------------------------------------|
|---------------------------------------------------------|
|---------------------------------------------------------|
|---------------------------------------------------------|
|-----7---5h8-----7---5h8-----7---5h8-----------3-2-------|
|-0-0---0-----0-0---0-----0-0---0-----0-0-5-4-5-----5-4-1-|


|---------------------------------------------------------------|
|---------------------------------------------------------------|
|-----------------------------------------14-14-14-14-13-13-13--|
|------------------------------------------x--x--x--x--x--x--x--|
|-----7---5h8-----7---5h8-----7---5h8-----12-12-12-12-11-11-11--|
|-0-0---0-----0-0---0-----0-0---0-----0-0-----------------------|


But, at the second time, another guitar does this harmony in the last bar:
|---------------------------------------------------------------|
|---------------------------------------------------------------|
|-----------------------------------------17-17-17-17-16-16-16--|
|------------------------------------------x--x--x--x--x--x--x--|
|-----7---5h8-----7---5h8-----7---5h8-----15-15-15-15-14-14-14--|
|-0-0---0-----0-0---0-----0-0---0-----0-0-----------------------|


Lead vocal part [x2] 0:32 ~ 0:49
|---------------------------------|-------------------------------|
|---------------------------------|-------------------------------|
|---------------------------------|-------------------------------|
|-------------------------3-------|-------------------------2-3-3-|
|-----------------3-----3---3-----|-------------------------2-3-3-|
|-0-0-0-0-0-0-0-0---4-1-------4-1-|-0-0-0-0-0-0-0-0-0-0-0-0-0-1-1-|


|---------------------------------|------------------------------|
|---------------------------------|------------------------------|
|---------------------------------|------------------------------|
|-------------------------3-------|-------------------5-5-\3/5-5-|
|-----------------3-----3---3-----|-------------------5-5-\3/5-5-|
|-0-0-0-0-0-0-0-0---4-1-------4-1-|-0-0-0-0-0-0-0-0-3-3-3-\1/3-3-|


Scream vocal part [x2] 0:49 ~ 1:07

They are not really pull-offs, kind of slides... anyway, the only important thing to do
to play the low
E note after each power chord.

|------------------------------------|------------------------------|
|------------------------------------|------------------------------|
|------------------------------------|------------------------------|
|-2------3p2---------5p2---------6p2-|-2------3p2-------------2h3p2-|
|-2------3p2---------5p2---------6p2-|-2------3p2-------5---5-------|
|-0--0-0-1p0-0-0-0-0-3p0-0-0-0-0-4p0-|-0--0-0-1p0-0-0-4---4---------|


|------------------------------------|---------------------------|
|------------------------------------|---------------------------|
|------------------------------------|---------------------------|
|-2------3p2---------5p2---------6p2-|-2------3p2----------------|
|-2------3p2---------5p2---------6p2-|-2------3p2----------------|
|-0--0-0-1p0-0-0-0-0-3p0-0-0-0-0-4p0-|-0--0-0-1p0-0-0--0000-0000-|


Play the section twice, but the second time, replace the last bar by this:
|-----------------------------------------------|
|-----------------------------------------------|
|----------------------------------------4h5-4--|
|-2------3p2-------------2h3p2~--6---6-7--------|
|-2------3p2-------5---5-----------7------------|
|-0--0-0-1p0-0-0-4---4--------------------------|

      With Harmony:
|------------------------------------------------|
|------------------------------------------------|
|-----------------------------------------7h9-7--|
|-2------3p2-------------2h3p2~--9---9-10--------|
|-2------3p2-------5---5-----------7-------------|
|-0--0-0-1p0-0-0-4---4---------------------------|


Intro melody [x1] + Intro rhythm [last 2 bars only] 1:08 ~ 1:16


Chorus [x2] 1:16 ~ 1:33

I don’t know if there’s a rhythm in this part. It’s difficult to hear. If there’s a 
it’s
just a E5 power chord for the first two bars (because the first bar is played twice), a
power chord for
the third bar and a D5 power chord for the fourth bar.

|-----------------------------------|---------------------------------|
|-----------------------------------|---------------------------------|
|o---------------------------------o|---------------------------------|
|o-----5---2h5-----5---2h5-----5---o|-----5---2h5-----5---2h5-----5---|
|-----------------------------------|-3-3---3-----3-3---3-----3-3---3-|
|--0-0---0-----0-0---0-----0-0---0--|---------------------------------|


|--------------------------------|
|--------------------------------|
|--------------------------------|
|-----4---4h5-----9p0-7p0-5p0-4--|
|-5-5---5-----5-5----------------|
|--------------------------------|


Main Riff [x2] 1:34 ~ 1:48

Lead vocal part [x2] 1:49 ~ 2:06

Scream vocal part [x2] 2:06 ~ 2:24

Intro melody [x1] + Intro rhythm [last 2 bars only] 2:25 ~
2:33

Chorus [x2] 2:33 ~ 2:50

Intro variation 2:50 ~ 3:07

Melody [x2]

|------------------------------|------------------------------|
|------------------------------|------------------------------|
|----------------7-9-----------|-----------------7-9------7~--|
|----9-7~----7-9-----10~-9-9~--|-----9-7~----7-9-----10~------|
|-7~------10-------------------|--7~------10------------------|
|------------------------------|------------------------------|

Rhythm [x1]

|------------------------------|----------------------------|
|------------------------------|----------------------------|
|------------------------------|-5-----5~----5---7--7--7--7-|
|-2-----2~----2--2-----2~----2-|-5-----5~----5---7--7--7--7-|
|-2-----2~----2--2-----2~----2-|-3---3-3~----3---5--5--5--5-|
|-0---0-0~----0--0---0-0~----0-|----------------------------|


|------------------------------|-------------------------------|
|------------------------------|-------------------------------|
|------------------------------|-5-----5~----5---7--7--7-------|
|-2-----2~----2--2-----2~----2-|-5-----5~----5---7--7--7-------|
|-2-----2~----2--2-----2~----2-|-3---3-3~----3---5--5--5—------|
|-0---0-0~----0--0---0-0~----0-|-------------------------\\\\\-|

Bridge 3:08 ~ 3:25

Lead

|----------------------------------------------------------|
|----------------------------------------------------------|
|-9-9---9-9---9-9-9-9-9-9-9-10--1010-10-10--13-13---16-16--|
|-x-x---x-x---x-x-x-x-x-x-x--x---x-x--x--x---x--x----x--x--| x3
|-7-7---7-7---7-7-7-7-7-7-7--8---8-8--8--8--11-11---14-14--|
|----------------------------------------------------------|


                                            [---3---][---3-------|
|----------------------------------------------------------------|
|----------------------------------------------------------------|
|-9-9---9-9---9-9-9-9-9-9-9-10--1010-10-10--16-16-16-14-14-14----|
|-x-x---x-x---x-x-x-x-x-x-x--x---x-x--x--x---x--x--x--x--x--x----| x1
|-7-7---7-7---7-7-7-7-7-7-7--8---8-8--8--8--14-14-14-12-12-12----|
|----------------------------------------------------------------|


Rhythm (same rhythm of the lead, with E5 power chord)

|----------------------------------------------------|
|----------------------------------------------------|
|----------------------------------------------------|
|-2-2---2-2---2-2-2-2-2-2-2-2--2-2--2--2--2-2---2-2--| x3
|-2-2---2-2---2-2-2-2-2-2-2-2--2-2--2--2--2-2---2-2--|
|-0-0---0-0---0-0-0-0-0-0-0-0--0-0--0--0--0-0---0-0--|

                                          [-3-] [-3------|
|--------------------------------------------------------|
|--------------------------------------------------------|
|--------------------------------------------------------|
|-2-2---2-2---2-2-2-2-2-2-2-2--2-2--2--2------5-----3----| x1
|-2-2---2-2---2-2-2-2-2-2-2-2--2-2--2--2------5-----3----|
|-0-0---0-0---0-0-0-0-0-0-0-0--0-0--0--0--3-3-3-1-1-1----|


Bridge variation 3:25 ~ 3:34

|--------------------------------------------------|
|--------------------------------------------------|
|--------------------------------------------------|
|-2-2---2-2---2-2---2--2-2---2-2--2--2--2-2---2-2--|
|-2-2---2-2---2-2---2--2-2---2-2--2--2--2-2---2-2--|
|-0-0---0-0---0-0---0--0-0---0-0--0--0--0-0---0-0--|


|--------------------------------------------------|
|--------------------------------------------------|
|--------------------------------------------------|
|-2-2---2-2---2-2---2--2-2---2-2--2--2-----5----3--|
|-2-2---2-2---2-2---2--2-2---2-2--2--2-----5----3--|
|-0-0---0-0---0-0---0--0-0---0-0--0--0--3333-1111--|


Solo 3:34 ~

   t   t    t    t    t    t    t   t    t    t    t
|------------------------------------------------------|
|-10p3-9p3-10p3-12p3-13p3-12p3-10p3-9p3-15p3-13p3-12p3-|
|------------------------------------------------------|
|------------------------------------------------------|
|------------------------------------------------------|
|------------------------------------------------------|

  t    t    t    t    t                   [---3---][---3-----|
---------------------------12------13-----13-12-10-13-12-10--|
-18p3-17p3-18p3-21p3-22p3--15b17~--16b18---------------------|
-------------------------------------------------------------|
-------------------------------------------------------------|
-------------------------------------------------------------|
-------------------------------------------------------------|

 [---3---][---3---] [----4----] [----4----] [----4-------|
-16-13-12-16-13-12--19-19-19-19-20-20-20-20-22-22-22-22--|
---------------------------------------------------------|
---------------------------------------------------------|
---------------------------------------------------------|
---------------------------------------------------------|
---------------------------------------------------------|

 [----4-----------------------------------------------------|
-24-24-24-24--////-12~--12h13-12~--13-12----12--------------|
-----------------------------------------15----15-13-15-13--|
------------------------------------------------------------|
------------------------------------------------------------|
------------------------------------------------------------|
------------------------------------------------------------|

----------------------------------------15-19p15----------|
-12-13-12----------------------------17----------17----17-|
----------14--9~--9h10-9~---------16----------------16----|
-------------------------------17-------------------------|
----------------------------19----------------------------|
----------------------------------------------------------|

-15----------------15-------------------------------------|
----19-17-15-17-19----19-17-15----------------------------|
-------------------------------17-16-14-17-16-14----------|
-------------------------------------------------17-16-14-|
----------------------------------------------------------|
----------------------------------------------------------|
----------------------------------------------------------|

 Natural harmonic
-[7]-whammy-bar-down-//////////////////////---------------|
----------------------------------------------------------|
----------------------------------------------------------|
----------------------------------------------------------|
----------------------------------------------------------|
----------------------------------------------------------|

The last speed lick in the solo is so hard to find that I just wrote a similar cool lick
sweeping. Do
what you want for this lick. Oh, and by the way, the harmony for the solo is at the end 
the tab!

Rhythm for solo [x4]

|-------------------------|
|-------------------------|
|-------------------------|
|-2~----3~----5~----7~----|
|-2~----3~----5~----7~----|
|-0~----1~----3~----5-----|


Bridge without lead for the first two bars (it starts while the last note of the solo 
down) 3:52 ~
4:08

Bass and Drum part 4:09 ~ 4:17

  1 2 3 4   1 2 3 4   1 2 3 4   1 2
|---------|---------|---------|-----------------|
|---------|---------|---------|-----------------|
|---------|---------|---------|-----------------|
|---------|---------|---------|---------5----3--|
|---------|---------|---------|---------5----3--|
|---------|---------|---------|------3333-1111--|

Main Riff [x1] 4:17 ~ 4:25

Scream vocal part [x2] 4:25 ~ 4:43

Intro variation section [x2] 4:44 ~ 5:01

Intro variation + Chorus [x1] 5:01 ~ 5:10

Intro variation + Chorus + Chorus Harmony [x1] 5:10 ~ 5:18

Chorus Harmony:


     |-----------------------------------|
     |-----------------------------------|
     |-----------------------------------| [x3]
     |------9---5h9-----9---5h9-----9----|
     |--7-7---7-----7-7---7-----7-7---7--|
     |-----------------------------------|


|----------------------------------------|
|----------------------------------------|
|----------------------------------------|
|-------9----7h9-------12p0-10p0-9p0-7~--|
|-10-10---10-----10-10-------------------|
|----------------------------------------|


Outro [x1] 5:19 ~ 5:22

|--------------------------------------------|
|--------------------------------------------|
|--------------------------------------------|
|--------------------------------------------|
|-----7---5h8-----7---5h8-----7---5h8--------|
|-0-0---0-----0-0---0-----0-0---0------------|


~~~~~~~~~~~~~~~~~~~~~~~~~~~~~~~~~~~~~~~~~~~~~~~~~~~~~~~

Solo Harmony
                                 [---3---][---3---][---3---][---3------|
|--------------|-16------17------17-16-13-17-16-13-19-17-16-19-17-16---|
|--------------|-19b21~--20b22~----------------------------------------|
|-Tapping-Part-|-------------------------------------------------------|
|--No-Harmony--|-------------------------------------------------------|
|--------------|-------------------------------------------------------|
|--------------|-------------------------------------------------------|
comments
print report bad tab
4 comments total. Showing first comments.
0 reply
2guitargod4 480 wrote on December 13 2009, 11:57 pm

nice tab, solo is accurate

0 reply
cloudintheskies 377 wrote on April 4 2010, 04:44 pm

Instead of:

E|-----------------|
B|-----------------|
G|-----------------|
D|-----------------|
A|-------3-2-------|
E|-5-4-5-----5-4-1-|

Is it not:

E|-------------------------------|
B|-------------------------------|
G|-------------------------------|
D|-------------------------------|
A|---------3-2-------------------|
E|-3-2-0-------5-3-1-----------|

-2 reply
Deathro 781 wrote on July 13 2010, 01:15 am

are you sure this is in standard? sounds a little heavy for standard

I want to post or [tab]
guest
You may want to rate the tab now too:
select rating
Please do not post tabs as comments. Select "correction" instead!