Oops, an error
Loading. Please wait.

Master Of Puppets Tab

version 1
version 1

Whole song

Interactive

14,827 views 6 this week
86 commentsread comments
1 2 3 4 5
x 53
add to favorites
launch autoscroll
font size
0
reset
how to read this tab
guitar tuner
Autoscroll
slow
fast
+/-
esc
set tempo
stop
Help us to improve Ultimate-Guitar.com Take our survey!
×
Author
Difficulty
advanced
This is in Eb which is unusual for Trivium.

This song iif off the "Kerrang Remastered" tribute album and is in-bloody credible.

[Intro]
 *Let last chord ring*
e|--------------------------------|
B|--------------------------------|
G|-9--------7---6---5-------------|
D|-9--------7---6---5-------------|
A|-7--------5---4---3-------------|
E|-0------------------------------|

 *4*Play Four Times*4*
e|--------------------------------------------------------------------|
B|--------------------------------------------------------------------|
G|--------------------7---6---5---------------------------------------|
D|--------------------7---6---5---------------------------------------|
A|-----7-----6--------5---4---3---------------------------------------|
E|-0-0---0-0---0-0---------------------0-0-7-0-0-6-0-0-5-0-4-0-3-0-2--|

 *2*Play Two Times*2*
e|--------------------------------------------------------------------|
B|--------------------------------------------------------------------|
G|--------------------------------------------------------------------|
D|--------------------------------------------------------------------|
A|-----2-----3-----4-----3-----2-2-----2-----3------5\4---5\4---5\4---|
E|-0-1---0-1---0-1---0-1---0-1-----0-1---0-1---0-0--3\2-0-3\2-0-3\2---|

e|--------------------------------------------------------------------|
B|--------------------------------------------------------------------|
G|-------------------------------------------------------------4------|
D|-------------------------------------------------------------4------|
A|-----2-----3-----4-----3-----2-2-----2-----3-----4-----3-----2------|
E|-0-1---0-1---0-1---0-1---0-1-----0-1---0-1---0-1---0-1---0-1--------|

e|--------------------------------------------------------------------|
B|--------------------------------------------------------------------|
G|--------------------------------------------------------------------|
D|--------------------------------------------------------------------|
A|-----2-----3-----4-----3-----2-2-----2-----3------5\4---5\4---5\4---|
E|-0-1---0-1---0-1---0-1---0-1-----0-1---0-1---0-0--3\2-0-3\2-0-3\2---|

e|--------------------------------------------------------------------|
B|--------------------------------------------------------------------|
G|-------------------------------------------------------------4------|
D|-------------------------------------------------------------4------|
A|-----2-----3-----4-----3-----2-2-----2-----3-----4-----3-----2------|
E|-0-1---0-1---0-1---0-1---0-1-----0-1---0-1---0-1---0-1---0-1--------|

e|--------------------------------------------------------------------|
B|--------------------------------------------------------------------|
G|--------------------------------------------------------------------|
D|--------------------------------------------------------------------|
A|-----2-----3-----4-----3-----2-2-----2-----3------5\4---5\4---5\4---|
E|-0-1---0-1---0-1---0-1---0-1-----0-1---0-1---0-0--3\2-0-3\2-0-3\2---|


e|--------------------------------------------------------------------|
B|--------------------------------------------------------------------|
G|--------------------------------------------------------------------|
D|------------------2------8------8------8------8------8v-------------|
A|-5\4---5\4---5\4--2----7------7------7------7------7----------------|
E|-3\2-0-3\2-0-3\2--0--0------0------0------0------0------------------|

 *6*Play Six Times*6*
e|--------------------------------------------------------------------|
B|--------------------------------------------------------------------|
G|--------------------------------------------------------------------|
D|--------------------------------------------------------------------|
A|-----------------5/7--8\7--5/7------------------5/7--5/7------------|
E|-0-0-0-0-0-0-0-0-3/5--6\5--3/5--0-0-0-0-0-0-0-0-3/5--3/5------------|

 *2*Play Two Times*2*
e|--------------------------------------------------------------------|
B|--------------------------------------------------------------------|
G|--------------------------------------------------------------------|
D|------------------4-4--5\4-4-4-------------------4---4--------------|
A|------------------0-2--3\2-0-2-------------------0h2-0h2------------|
E|-2-2-2-2-2-2-2-2----------------2-2-2-2-2-2-2-2---------------------|

e|-------------------|
B|-------------------|
G|-4-4-4-4-4-4-4-4---|
D|-4-4-4-4-4-4-4-4---|
A|-2-2-2-2-2-2-2-2---|
E|-------------------|

[Chorus]
e|--------------------------------------------------------------------|
B|--------------------------------------------------------------------|
G|-9-------7--9------------------------------------------8------------|
D|-9-------7--9------9------------------10--9------------8--9---------|
A|-7-------5--7--7-9---10-9h10----------10--9------------6--9---------|
E|-0-0-0-0----------------------8-8-8-8-8---7----8-8-8-8----7---------|

e|--------------------------------------------------------------------|
B|--------------------------------------------------------------------|
G|-9-------7--9-------------------------------------------------------|
D|-9-------7--9------9------------------10--9----------------2-2---3-3|
A|-7-------5--7--7-9---10-9h10----------10--9--9-7-6--6------2-2---1-1|
E|-0-0-0-0----------------------8-8-8-8-8---7-----------8-7--0-0---1-1|

e|--------------------------------------------------------------------|
B|--------------------------------------------------------------------|
G|------------------------------------------------------------------5-|
D|-------------------5------4-----2---7------5-----4----------9-----5-|
A|-2------4------5---3--0-0-2-0-0-0---5------3-----2---2------7-----3-|
E|-0--0-0-2--0-0-3-----------------------0-0---0-0-----0--0-0---0-0---|


e|--------------------------------------------------------------------|
B|--------------------------------------------------------------------|
G|----------------------------------5---------------------------------|
D|-2--2----3--3---------------7-----5---------------------------------|
A|-2--2----3--3--------2------5-----3--------2--2----3--3-------------|
E|-0--0----1--1--------0--0-0---0-0----------0--0----1--1-------------|

[Verse]
e|--------------------------------------------------------------------|
B|--------------------------------------------------------------------|
G|-------------------------------------------------------------4------|
D|-------------------------------------------------------------4------|
A|-----2-----3-----4-----3-----2-2-----2-----3-----4-----3-----2------|
E|-0-1---0-1---0-1---0-1---0-1-----0-1---0-1---0-1---0-1---0-1--------|

e|--------------------------------------------------------------------|
B|--------------------------------------------------------------------|
G|--------------------------------------------------------------------|
D|--------------------------------------------------------------------|
A|-----2-----3-----4-----3-----2-2-----2-----3------5\4---5\4---5\4---|
E|-0-1---0-1---0-1---0-1---0-1-----0-1---0-1---0-0--3\2-0-3\2-0-3\2---|

e|-------------------|
B|-------------------|
G|-------------------|
D|-------------------|
A|-5\4---5\4---5\4---|
E|-3\2-0-3\2-0-3\2---|

 *4*Play Four Times*4*
e|--------------------------------------------------------------------|
B|--------------------------------------------------------------------|
G|--------------------------------------------------------------------|
D|--------------------------------------------------------------------|
A|-----------------5/7--8\7--5/7------------------5/7--5/7------------|
E|-0-0-0-0-0-0-0-0-3/5--6\5--3/5--0-0-0-0-0-0-0-0-3/5--3/5------------|

 *2*Play Two Times*2*
e|--------------------------------------------------------------------|
B|--------------------------------------------------------------------|
G|--------------------------------------------------------------------|
D|------------------4-4--5\4-4-4-------------------4---4--------------|
A|------------------0-2--3\2-0-2-------------------0h2-0h2------------|
E|-2-2-2-2-2-2-2-2----------------2-2-2-2-2-2-2-2---------------------|

e|-------------------|
B|-------------------|
G|-4-4-4-4-4-4-4-4---|
D|-4-4-4-4-4-4-4-4---|
A|-2-2-2-2-2-2-2-2---|
E|-------------------|

 *3*Play Three Times*3*
e|--------------------------------------------------------------------|
B|--------------------------------------------------------------------|
G|-9-------7--9------------------------------------------8------------|
D|-9-------7--9------9------------------10--9------------8--9---------|
A|-7-------5--7--7-9---10-9h10----------10--9------------6--9---------|
E|-0-0-0-0----------------------8-8-8-8-8---7----8-8-8-8----7---------|

e|--------------------------------------------------------------------|
B|--------------------------------------------------------------------|
G|-9-------7--9-------------------------------------------------------|
D|-9-------7--9------9------------------10--9----------------2-2---3-3|
A|-7-------5--7--7-9---10-9h10----------10--9--9-7-6--6------2-2---1-1|
E|-0-0-0-0----------------------8-8-8-8-8---7-----------8-7--0-0---1-1|

e|--------------------------------------------------------------------|
B|--------------------------------------------------------------------|
G|------------------------------------------------------------------5-|
D|-------------------5------4-----2---7------5-----4----------9-----5-|
A|-2------4------5---3--0-0-2-0-0-0---5------3-----2---2------7-----3-|
E|-0--0-0-2--0-0-3-----------------------0-0---0-0-----0--0-0---0-0---|

e|--------------------------------------------------------------------|
B|--------------------------------------------------------------------|
G|----------------------------------5---------------------------------|
D|-2--2----3--3---------------7-----5---------------------------------|
A|-2--2----3--3--------2------5-----3--------2--2----3--3-------------|
E|-0--0----1--1--------0--0-0---0-0----------0--0----1--1-------------|

 Soft Part with solo
e|----------------0h2p0-----3------------------------------------------|
B|-------------3--------3-----------3---3-----0-----0-------0-------0--|
G|------0----2---2--------2-------0---0---0-------2-------2-------2----|
D|----2----0--------------------------------2-----------------0-1------|
A|--2---------------------------3---------------0-----0-2-------------2|
E|0--------------------------------------------------------------------|

 Middle solo distorted:
e|----19-15----17-14-------------17-14----15-12-----------------------|}
B|-17-------17-------15-15-15-15-------15-------13-13-13-13-----------|}
G|--------------------------------------------------------------------|}
D|--------------------------------------------------------------------|}
A|--------------------------------------------------------------------|}
E|--------------------------------------------------------------------|}
 
*2*PLAY TOP AND BOTTOM TOGETHER TWICE*2*

e|-15-12----14-12h14p12-11-------------------11-12-14-----------------|}
B|-------13----------------13-12-13-15-13-15--------------------------|}
G|--------------------------------------------------------------------|}
D|--------------------------------------------------------------------|}
A|--------------------------------------------------------------------|}
E|--------------------------------------------------------------------|}

e|----------------15----15-17----19-15-12-----------------------------|
B|-17-17-17-17-19----19-------19----------13~~------------------------|
G|--------------------------------------------------------------------|
D|--------------------------------------------------------------------|
A|--------------------------------------------------------------------|
E|--------------------------------------------------------------------|

e|---------15-14----15-14---------------------------------------------|
B|-15b-15b-------12-------12----------15------------------------------|
G|---------------------------12-14-12-14b-14-12-----------------------|
D|----------------------------------------------14~~------------------|
A|--------------------------------------------------------------------|
E|--------------------------------------------------------------------|

e|--------------------------------------------------------------------|
B|--------------------------------------------------------------------|
G|-12-------12-12h14p12-11----14-12-11--------------------------------|
D|----14-12----------------12----------10~~---------------------------|
A|--------------------------------------------------------------------|
E|--------------------------------------------------------------------|

e|----------------------------15-11/12-11-------12//19----------------|
B|----------------------------------------12-11-11//17----------------|
G|--------------------9-10-12-----------------------------------------|
D|-7-9-10~~-7-9-10-12-------------------------------------------------|
A|--------------------------------------------------------------------|
E|--------------------------------------------------------------------|


e|----19-15----17-14-------------17-14----15-12-----------------------|}
B|-17-------17-------15-15-15-15-------15-------13-13-13-13-----------|}
G|--------------------------------------------------------------------|}
D|--------------------------------------------------------------------|}
A|--------------------------------------------------------------------|}
E|--------------------------------------------------------------------|}
 
  *2*PLAY TOP AND BOTTOM TOGETHER TWICE*2*
                                                                     }
e|-15-12----14-12h14p12-11-------------------11-12-14-----------------|}
B|-------13----------------13-12-13-15-13-15--------------------------|}
G|--------------------------------------------------------------------|}
D|--------------------------------------------------------------------|}
A|--------------------------------------------------------------------|}
E|--------------------------------------------------------------------|}

 DISTORTED THIS TIME
 *2*Play Twice*2*
e|----------------0h2p0-----3------------------------------------------|
B|-------------3--------3-----------3---3-----0-----0-------0-------0--|
G|------0----2---2--------2-------0---0---0-------2-------2-------2----|
D|----2----0--------------------------------2-----------------0-1------|
A|--2---------------------------3---------------0-----0-2-------------2|
E|0--------------------------------------------------------------------|

e|--------------------------------------------------------------------------|
B|--------------------------------------------------------------------------|
G|--------------------------------------------------------------------------|
D|--9----7--------5---------2----4----8-------------------------------------|
A|--7----5--------3---------0----2----6-------------------------------------
E|--------------------------------------------------------------------------|

e|--------------------------------------------------------------------|
B|--------------------------------------------------------------------|
G|--------------------------------------------------------------------|
D|--------------------------------------------------------------------|
A|-2--2--2--2--2--2--2--2--2--2--2--2--2--2--2--2---------------------|
E|-0--0--0--0--0--0--0--0--0--0--0--0--0--0--0--0---------------------|

 *3*Play Three Times*3*
e|---------------------------------------------------------------------|
B|---------------------------------------------------------------------|
G|---------------------------------------------------------------------|
D|---------------6-6---------------6---------------6-6---------------6-|
A|-4-4-5-4-4-4-5-4-4-4-4-5-4-4-4-5-4-4-4-5-4-4-4-5-4-4-4-4-5-4-4-4-5-4-|
E|-2-2-3-2-2-2-3-----2-2-3-2-2-2-3---2-2-3-2-2-2-3-----2-2-3-2-2-2-3---|

 (let ring)
e|--------------------------------------------------------------------|
B|--------------------------------------------------------------------|
G|--------------------------------------------------------------------|
D|--------------------------------------------------------------------|
A|-5--------4--------2------------------------------------------------|
E|-3--------2--------0------------------------------------------------|

[Solo]
e|-17p12----------12-17p12----------12-17p12----------12-15p12----------12-|
B|-------13-12-13----------13-12-13----------13-12-13----------13-12-13----|
G|-------------------------------------------------------------------------|
D|-------------------------------------------------------------------------|
A|-------------------------------------------------------------------------|
E|-------------------------------------------------------------------------|

e|-17p12----------12-17p12----------12-17p12----------12-15p12----------12-|
B|-------13-12-13----------13-12-13----------13-12-13----------13-12-13----|
G|-------------------------------------------------------------------------|
D|-------------------------------------------------------------------------|
A|-------------------------------------------------------------------------|
E|-------------------------------------------------------------------------|

e|-19-19-19-17-17-17-15-15-15-14-14-14-17-17-17-15-15-15-14-14-14----------|
B|----------------------------------------------------------------15-15-15-|
G|-------------------------------------------------------------------------|
D|-------------------------------------------------------------------------|
A|-------------------------------------------------------------------------|
E|-------------------------------------------------------------------------|

e|---------------17p15-----------------23b-23b-23b--24b-24b-24b------------|
B|-17bb-17p15p14-------15p14-----------------------------------------------|
G|---------------------------16-14~----------------------------------------|
D|-------------------------------------------------------------------------|
A|-------------------------------------------------------------------------|
E|-------------------------------------------------------------------------|

e|---------------------------10-8-7----8-7------7~~------------------------|
B|----------------------------------10-----10-8----------------------------|
G|-2-4-2b-4-3-2-2h4p2------------------------------------------------------|
D|--------------------2-2h4~-----------------------------------------------|
A|-------------------------------------------------------------------------|
E|-------------------------------------------------------------------------|

e|-10p8p7-10p8p7-12p10p9-12p10p9-14p12p11-14p12p11-------------------------|
B|-------------------------------------------------------------------------|
G|-------------------------------------------------------------------------|
D|-------------------------------------------------------------------------|
A|-------------------------------------------------------------------------|
E|-------------------------------------------------------------------------|

e|-17p15-14-19p17-14-17p15-14-19p17-14-17p15-14-19p17-14-17p15-14-19p17-14-|
B|-------------------------------------------------------------------------|
G|-------------------------------------------------------------------------|
D|-------------------------------------------------------------------------|
A|-------------------------------------------------------------------------|
E|-------------------------------------------------------------------------|

e|-----14-----14-----14-----14-19p14----14-19p14----14-19p14----14---------|
B|-17b----17b----17b----17b----------17----------17----------17------------|
G|-------------------------------------------------------------------------|
D|-------------------------------------------------------------------------|
A|-------------------------------------------------------------------------|
E|-------------------------------------------------------------------------|

e|-----14-----14-----14-----14-----15-----15-----15-----15-----------------|
B|-17b----17b----17b----17b----18b----18b----18b----18b--------------------|
G|-------------------------------------------------------------------------|
D|-------------------------------------------------------------------------|
A|-------------------------------------------------------------------------|
E|-------------------------------------------------------------------------|

e|-----16-----16-----17----17-----18-----18--22/\/\/\/\/\/\----------------|
B|-19b----19b----20b----20----21b----21b-----------------------------------|
G|-------------------------------------------------------------------------|
D|-------------------------------------------------------------------------|
A|-------------------------------------------------------------------------|
E|-------------------------------------------------------------------------|

e|-------------------------------------------------------------------------|
B|-------------------------------------------------------------------------|
G|-------------------------------------------------------------------------|
D|-----------------------------4-4-----------------------------4-----------|
A|-----4-----5-----4-----5-----2-2-----4-----5-----4-----5-----2-----------|
E|-0-0-2-0-0-3-0-0-2-0-0-3-0-0-----0-0-2-0-0-3-0-0-2-0-0-3-0-0-------------|

e|-------------------------------------------------------------------------|
B|-------------------------------------------------------------------------|
G|-------------------------------------------------------------------------|
D|-----------------------------4-4-----------------------------4-----------|
A|-----4-----5-----4-----5-----2-2-----4-----5-----4-----5-----2-----------|
E|-0-0-2-0-0-3-0-0-2-0-0-3-0-0-----0-0-2-0-0-3-0-0-2-0-0-3-0-0-------------|

e|-------------------------------------------------------------------------|
B|-------------------------------------------------------------------------|
G|-------------------------------------------------------------------------|
D|-------------------------------2-4-5-5-----------------------------------|
A|-------------------------2-3-5-------3--333-2-3-5-3-2--------------------|
E|-0-0-0-0-0-0-0-000-2-3-5------------------------------3-2----------------|

e|-------------------------------------------------------------------------|
B|-------------------------------------------------------------------------|
G|-------------------------------------------------------------------------|
D|-------------------------------2-4-5-5-----------------------------------|
A|-------------------------2-3-5-------3--333-2-3-5-3-2--------------------|
E|-0-0-0-0-0-0-0-000-2-3-5------------------------------3-2----------------|

e|-------------------------------------------------------------------------|
B|-------------------------------------------------------------------------|
G|-------------------------------------------------------------------------|
D|-------------------------------2-4-5-5-----------------------------------|
A|-------------------------2-3-5-------3--333-2-3-5-3-2--------------------|
E|-0-0-0-0-0-0-0-000-2-3-5------------------------------3-2----------------|

e|---------------------------------------------------------------------------|
B|---------------------------------------------------------------------------|
G|---------------------------------------------------------------------------|
D|-------------------------------2-4-5-5-------------------------------------|
A|-------------------------2-3-5-------3--333-2-3-5-3-2-----2--333-2-3-5-3-2-|
E|-0-0-0-0-0-0-0-000-2-3-5------------------------------3-2-0----------------|

e|--------------------------------------------------------------------|
B|--------------------------------------------------------------------|
G|--------------------------------------------------------------------|
D|--------------------------------------------------------------------|
A|-----2-----3-----4-----3-----2-2-----2-----3------5\4---5\4---5\4---|
E|-0-1---0-1---0-1---0-1---0-1-----0-1---0-1---0-0--3\2-0-3\2-0-3\2---|

e|--------------------------------------------------------------------|
B|--------------------------------------------------------------------|
G|--------------------------------------------------------------------|
D|--------------------------------------------------------------------|
A|-----2-----3-----4-----3-----2-2-----2-----3------5\4---5\4---5\4---|
E|-0-1---0-1---0-1---0-1---0-1-----0-1---0-1---0-0--3\2-0-3\2-0-3\2---|

e|-------------------|
B|-------------------|
G|-------------------|
D|-------------------|
A|-5\4---5\4---5\4---|
E|-3\2-0-3\2-0-3\2---|

 *4*Play Four Times*4*
e|--------------------------------------------------------------------|
B|--------------------------------------------------------------------|
G|--------------------------------------------------------------------|
D|--------------------------------------------------------------------|
A|-----------------5/7--8\7--5/7------------------5/7--5/7------------|
E|-0-0-0-0-0-0-0-0-3/5--6\5--3/5--0-0-0-0-0-0-0-0-3/5--3/5------------|

 *2*Play Two Times*2*
e|--------------------------------------------------------------------|
B|--------------------------------------------------------------------|
G|--------------------------------------------------------------------|
D|------------------4-4--5\4-4-4-------------------4---4--------------|
A|------------------0-2--3\2-0-2-------------------0h2-0h2------------|
E|-2-2-2-2-2-2-2-2----------------2-2-2-2-2-2-2-2---------------------|

e|-------------------|
B|-------------------|
G|-4-4-4-4-4-4-4-4---|
D|-4-4-4-4-4-4-4-4---|
A|-2-2-2-2-2-2-2-2---|
E|-------------------|


 *3*Play Three Times*3*
e|--------------------------------------------------------------------|
B|--------------------------------------------------------------------|
G|-9-------7--9------------------------------------------8------------|
D|-9-------7--9------9------------------10--9------------8--9---------|
A|-7-------5--7--7-9---10-9h10----------10--9------------6--9---------|
E|-0-0-0-0----------------------8-8-8-8-8---7----8-8-8-8----7---------|

e|--------------------------------------------------------------------|
B|--------------------------------------------------------------------|
G|-9-------7--9-------------------------------------------------------|
D|-9-------7--9------9------------------10--9----------------2-2---3-3|
A|-7-------5--7--7-9---10-9h10----------10--9--9-7-6--6------2-2---1-1|
E|-0-0-0-0----------------------8-8-8-8-8---7-----------8-7--0-0---1-1|

e|--------------------------------------------------------------------|
B|--------------------------------------------------------------------|
G|------------------------------------------------------------------5-|
D|-------------------5------4-----2---7------5-----4----------9-----5-|
A|-2------4------5---3--0-0-2-0-0-0---5------3-----2---2------7-----3-|
E|-0--0-0-2--0-0-3-----------------------0-0---0-0-----0--0-0---0-0---|

e|--------------------------------------------------------------------|
B|--------------------------------------------------------------------|
G|----------------------------------5---------------------------------|
D|-2--2----3--3---------------7-----5---------------------------------|
A|-2--2----3--3--------2------5-----3--------2--2----3--3----------2--|
E|-0--0----1--1--------0--0-0---0-0----------0--0----1--1----------0--|

 *4*Play This Four Times*4*
e|--------------------------------------------------------------------|
B|--------------------------------------------------------------------|
G|--------------------------------------------------------------------|
D|--------------------------------------------------------------------|
A|-----------------5/7--8\7--5/7------------------5/7--5/7------------|
E|-0-0-0-0-0-0-0-0-3/5--6\5--3/5--0-0-0-0-0-0-0-0-3/5--3/5------------|

 !TAKE A PAUSE BEFORE PLAYING LAST BIT FOR THE GLORY!
e|--------------------------------------------------------------------|
B|--------------------------------------------------------------------|
G|--------------------------------------------------------------------|
D|--------------------------------------------------------------------|
A|-5\4---5\4---5\4-2--------------------------------------------------|
E|-3\2-0-3\2-0-3\2-0--------------------------------------------------|

************************************

| \  Slide down
| /  Slide up
| h  Hammer-on
| p  Pull-off
| ~  Vibrato
| b  Bend

************************************
Suggest correction
comments
print report bad tab
86 comments total. Showing first comments. show 1 bad comment
+2 reply
metal_matt 10 Apr 06, 2006 11:23 AM

The Basic structure of the tab is good. But the solo is for the metallica version not the trivium one wat do u think ur playing at r u deaf? Corey doesnt play tht!!! But the rest of the tab is good (not hard though considering its excactly the same as the metallica version and theres god knows how many tabs of that!)

+3 reply
BlackMist 132 Apr 06, 2006 07:17 PM

All you have done is copied the other blokes version of Master Of Puppets by Metallica.

guest
You may want to rate the tab now too:
select rating
Wanna post a correction for this tab? Suggest correction