Oops, an error
Loading. Please wait.

My Hatred Tab

version 1
version 1

Intro

Whole song

Interactive

774 views 1 this week
2 commentsread comments
1 2 3 4 5
accurate
x 4
add to favorites
launch autoscroll
font size
0
reset
how to read this tab
guitar tuner
Autoscroll
slow
fast
+/-
esc
set tempo
stop
Help us to improve Ultimate-Guitar.com Take our survey!
×
Author
Difficulty
Tuning
intermediate
D A D G B E
Tabbed by:steve
Email:allchavsrgay@hotmail.com

Tuning:Drop D

Guitar 1       Palm mute the 2nd and 3rd chords in every set of chords.
e|-------------------------------------------------------------------|
B|-------------------------------------------------------------------|
G|-------------------------------------------------------------------|
D|-2-2-2-2-4-4-4-5-5-5-4-2-2-2-2-4-4-4-5-5-5-4-5-5-5-5-4-4-4-5-5-5-4-|
A|-2-2-2-2---------------2-2-2-2---------------5-5-5-5---------------|
D|-2-2-2-2---------------2-2-2-2---------------5-5-5-5---------------|


e|-------------------------|
B|-------------------------|
G|-------------------------|
D|-7-7-7-7-7-7-7-5-5-5-4---|
A|-7-7-7-7-----------------|
D|-7-7-7-7-----------------|


Guitar 2  (harmony guitar) This comes in after Guitar 1 has played  through 2 times.                     
e|---------------------------------------------------------------------|
B|---------------------------------------------------------------------|
G|---------2-2-2-4-4-4-2---------2-2-2-4-4-4-2---------2-2-2-4-4-4-2---|
D|-2-2-2-2---------------2-2-2-2---------------4-4-4-4-----------------|
A|-2-2-2-2---------------2-2-2-2---------------4-4-4-4-----------------|
E|-2-2-2-2---------------2-2-2-2---------------4-4-4-4-----------------|

e|------------------------|
B|------------------------|
G|------------------------|
D|-7-7-7-7--5-5-5-4-4-4-2-|
A|-7-7-7-7----------------|
E|-7-7-7-7----------------|

If you want to play it one guitar you can play this but tis a bit harder

e|---------------------------------------------------------------------|
B|---------------------------------------------------------------------|
G|---------2-2-2-4-4-4-2---------2-2-2-4-4-4-2---------2-2-2-4-4-4-2---|
D|-2-2-2-2-4-4-4-5-5-5-4-2-2-2-2-4-4-4-5-5-5-4-4-4-4-4-4-4-4-5-5-5-4---|
A|-2-2-2-2---------------2-2-2-2---------------4-4-4-4-----------------|
E|-2-2-2-2---------------2-2-2-2---------------4-4-4-4-----------------|

e|------------------------|
B|------------------------|
G|----------5-5-5-4-4-4-2-|
D|-7-7-7-7--7-7-7-5-5-5-4-|
A|-7-7-7-7----------------|
E|-7-7-7-7----------------|


Suggest correction
comments
print report bad tab
2 comments total.
0 reply
bmth13 10 wrote on September 30 2009, 07:52 pm

this was pretty good 5*

0 reply
ibanezeric82 103 wrote on January 21 2010, 12:06 am

This song is in standard tuning man. Play along with it or watch Matt play it in Youtube.

guest
You may want to rate the tab now too:
select rating
Please do not post tabs as comments. Select "correction" instead!