Oops, an error
Loading. Please wait.

My Hatred Tab

version 1
version 1

Whole song

Interactive

3,280 views 6 this week
6 commentsread comments
1 2 3 4 5
accurate
x 4
add to favorites
launch autoscroll
font size
0
reset
how to read this tab
guitar tuner
Tab Pro tools
  • play this tab
  • loop segment
  • change instrument
  • show fretboard
  • metronome
×
Best way to learn
"My Hatred"
Autoscroll
slow
fast
+/-
esc
set tempo
stop
Contributor
---------------------------------------------------------------------------
                             My Hatred - Trivium
---------------------------------------------------------------------------
Tabbed by: madmurphy    
Email: s_murphy88@hotmail.com

Tuning: Standard

Intro
e|----------------------------------------------------------------------| \
B|----------------------------------------------------------------------| |
G|----------------------------------------------------------------------| |
D|-2-----2----------2-----2----------5-----5----------7-----7-----------| |
A|-2-----2--9-10-9--2-----2--9-10-9--3-----3--9-10-9--5-----5--12-10-9--| |
E|-0-0-0-0----------0-0-0-0----------3-3-3-3----------5-5-5-5-----------| |
 |   . .    T  T T    . .    T  T T    . .    T  T T    . .     T  T T    |x2 
e|----------------------------------------------------------------------| | 
B|----------------------------------------------------------------------| |
G|----------------------------------------------------------------------| |
D|-2-----2----------2-----2----------5-----5----------7-----7-----------| |
A|-2-----2----------2-----2----------3-----3----------5-----5-----------| |
E|-0-0-0-0----------0-0-0-0----------3-3-3-3----------5-5-5-5-----------| /
     . .              . .              . .              . .
e|----------------------------------------------------------------------| \
B|----------------------------------------------------------------------| |
G|----------------------------------------------------------------------| |
D|-2-----2----------2-----2----------5-----5----------7-----7-----------| |
A|-2-----2--9-10-9--2-----2--9-10-9--3-----3--9-10-9--5-----5--12-10-9--| |
E|-0-0-0-0----------0-0-0-0----------3-3-3-3----------5-5-5-5-----------| |
 |   . .    T  T T    . .    T  T T    . .    T  T T    . .     T  T T    |x2 
e|----------------------------------------------------------------------| | 
B|----------------------------------------------------------------------| |
G|----------------------------------------------------------------------| |
D|-2-----2--7--9-7--2-----2--7--9-7--5-----5--7--9-7--7-----7--10--9-7--| |
A|-2-----2----------2-----2----------3-----3----------5-----5-----------| |
E|-0-0-0-0----------0-0-0-0----------3-3-3-3----------5-5-5-5-----------| /
     . .    T  T T    . .    T  T T    . .    T  T T    . .     T  T T

Main Riff (both guitars)
e|-------------------------------------------------------------------------|
B|-------------------------------------------------------------------------|
G|-------------------------------------------------------------------------|
D|-------------------------------------------------------------------------|
A|-------3p2-3-------------------5p3-5-------------------7p5-5-------------|
E|-0-000-------0-000-3-2-0-0-000-------0-000-5-0-7-0-000-------3-2-0-3-2-0-|
   . ...       . ...     . . ...       . ...   .   . ...       . . . . . .
e|-----------------------|
B|-----------------------|
G|-----------------------|
D|--4-----4-----5--------|
A|--------------------5--|
E|----0-0---0-0---0-0----|
      . .   . .   . .
Thats about all i got lol. Hope it sparks someone else to tab the rest 
cos i wanna know how it goes lol. 

| T  tremlo picked
| /  slide up
| \  slide down
| h  hammer-on
| p  pull-off
| ~  vibrato
| +  harmonic
| x  Mute note
===========================================================================
comments
print report bad tab
6 comments total. Showing first comments.
0 reply
ledcaveman wrote on March 19 2006, 03:28 pm

good tab!! only the rest is needed lol good job mate!

0 reply
guitarist_2006 wrote on July 26 2006, 12:48 pm

wheres the fukin solo bytch u cheap ass matha fuka work on bytch

0 reply
guitarist_2006 wrote on July 26 2006, 12:49 pm

work on it

I want to post or [tab]
guest
You may want to rate the tab now too:
select rating
Please do not post tabs as comments. Select "correction" instead!