Oops, an error
Loading. Please wait.

No Way To Heal Tab

version 1
version 1

Whole song

Interactive

10,543 views 15 this week
no commentswrite comment
1 2 3 4 5
x 17
add to favorites
launch autoscroll
font size
0
reset
how to read this tab
guitar tuner
Autoscroll
slow
fast
+/-
esc
set tempo
stop
Help us to improve Ultimate-Guitar.com Take our survey!
×
Author
Difficulty
Tuning
intermediate
C# G# C# F# A# D#
Tabbed by: Connor Ford

Band:  Trivium
Song:  No Way To Heal
Album: Vengeance Falls (2013)


Tuning: Drop C# (C#, G#, C#, F#, A#, D#)
(Tune all strings down half a step then drop tune)

Shredding solo, vibrant harmonies, all Trivium

Be sure to revise the scales before attempting to learn.

I'm looking forward to tabbing the full album of Vengeance Falls on October
15th. If you're fans of Trivium's early stuff, be sure to check out Shogun
and In Waves on my contributions!

Please rate, comment, correct, anything that will help :)





Hammer on:        h
Pull off:         p
Slide up:         /
Slide down:       \
Bend up:          BU(?)
Tapped note:      T
Vibrato:          ~~~
Pinch Harmonic:   PH
Natural Harmonic: NH
Dive Bomb:        DB
Tremelo pick:     Tr---
After Muting:     M
Pick slide:       X\\\ ('\' indicated duration)
Triplets:         ___T___ 

I have only included triplets in this tab for a certain lick in
the solo as all the notes need are significant.
Where I have marked: '-15-17-18-18-17-15-'
The two 18's are NOT a accidental double type.

Guitar 1:        Matt Heafy
Guitar 2:        Corey Beaulieu
Guitar 3:        Corey Beaulieu (Additional harmonies)


_________________________________________________________________________



Intro
Guitar 1
||-----------------------------------------------------------------------------|
|o-----------------------------------------------------------------------------|
||-10-----9-----7---12-----10-----9---10-----9-----7---------14-------14-------|
||----0-0---0-0---0----0-0----0-0---0----0-0---0-0---0-10-12----10-12----10-12-|
|o-----------------------------------------------------------------------------|
||-----------------------------------------------------------------------------|
|
|Guitar 2
||----------------------------------------------------------------------------------|
|o----------------------------------------------------------------------------------|
||-14-----12-----10---15-----14-----12---14-----12-----10---------17-------17-------|
||----0-0----0-0----0----0-0----0-0----0----0-0----0-0----0-14-15----14-15----14-15-|
|o----------------------------------------------------------------------------------|
||----------------------------------------------------------------------------------|

Guitar 1
|-----------------------------------------------------------------------------||
|-----------------------------------------------------------------------------o|
|-10-----9-----7---12-----10-----9---10-----9-----9h10p9----------------------||
|----0-0---0-0---0----0-0----0-0---0----0-0---0-0--------10~~~~~~~~~~~~~~~~~~-||
|-----------------------------------------------------------------------------o|
|-----------------------------------------------------------------------------||
|
|Guitar 2
|----------------------------------------------------------------------------------||
|----------------------------------------------------------------------------------o|
|-14-----12-----10---15-----14-----12---14-----12-----12h14p12---------------------||
|----0-0----0-0----0----0-0----0-0----0----0-0----0-0----------14~~~~~~~~~~~~~~~~~-||
|----------------------------------------------------------------------------------o|
|----------------------------------------------------------------------------------||


_________________________________________________________________________



Verse 1
Both guitars
|---------------------------------------------------------------------|
|---------------------------------------------------------------------|
|---------------------------------------------------------------------|
|---------------------------------------------------------------------|
|---------------------------------------------------------------------|
|-0h12h15-12~~~~-0-0-0-0-0-0-0-0-0-0-0h8h12-8~~~~-0-0-0h5h8-5~~~~-0-0-|

|---------------------------------------------------------------------|
|---------------------------------------------------------------------|
|---------------------------------------------------------------------|
|---------------------------------------------------------------------|
|----------------0-0---0----------------------------------------------|
|-0h12h15-12~~~~-0-0---0---0-0-0-0-0-0h8h12-8~~~~-0-0-0h5h8-5~~~~-0-0-|

Guitar 1
|------------------------------------------------------------------------|
|------------------------------------------------------------------------|
|------------------------------------------------------------------------|
|------------------------------------------------------------------------|
|------------------------------------------------------------------------|
|-0h15h19-15~~~~-0-0-0-0-0-0-0-0-0-0-0h12h15-12~~~~-0-0-0h8h12-8~~~~-0-0-|
|
|Guitar 2
|---------------------------------------------------------------------|
|---------------------------------------------------------------------|
|---------------------------------------------------------------------|
|-0h12h15-12~~~~---------------------0h8h12-8~~~~-----0h5h8-5~~~~-----|
|---------------------------------------------------------------------|
|----------------0-0-0-0-0-0-0-0-0-0--------------0-0-------------0-0-|

Guitar 1
|------------------------------------------------------------------------|
|------------------------------------------------------------------------|
|------------------------------------------------------------------------|
|------------------------------------------------------------------------|
|----------------0-0---0-------------------------------------------------|
|-0h15h19-15~~~~-0-0---0---0-0-0-0-0-0h12h15-12~~~~-0-0-0h8h12-8~~~~-0-0-|
|
|Guitar 2
|---------------------------------------------------------------------|
|---------------------------------------------------------------------|
|---------------------------------------------------------------------|
|-0h12h15-12~~~~---------------------0h8h12-8~~~~-----0h5h8-5~~~~-----|
|----------------0-0---0----------------------------------------------|
|----------------0-0---0---0-0-0-0-0--------------0-0-------------0-0-|


_________________________________________________________________________



Verse 2
Both guitars
|---------------------------------|-------------------------------------|
|---------------------------------|-------------------------------------|
|---------------------------------|-------------------------------------|
|---------------------------------|-------------------------------------|
|---------------------------------|-------------------------------------|
|-5-5-555-555-7-5-8-5-5-7-5-8-5-5-|-8-8-888-888-10-8-12-8-8-10-8-12-8-8-|

Guitar 1
||----------------------------------------||
|o----------------------------------------o|
||----------------------------------------||
||----------------------------------------||
|o----------------------------------------o|
||-12-10-0-10-0-10-12-0-12-0-12-0-7h8p7~~-||
|
|Guitar 2
||----------------------------------------||
|o----------------------------------------o|
||----------------------------------------||
||-12-10-0-10-0-10-12-0-12-0-12-0-7h8p7~~-||
|o----------------------------------------o|
||----------------------------------------||

Both guitars
|---------------------------------|-------------------------------------|
|---------------------------------|-------------------------------------|
|---------------------------------|-------------------------------------|
|---------------------------------|-------------------------------------|
|---------------------------------|-------------------------------------|
|-5-5-555-555-7-5-8-5-5-7-5-8-5-5-|-8-8-888-888-10-8-12-8-8-10-8-12-8-8-|


_________________________________________________________________________



Pre-chorus
Guitar 2
||----------------------------------------||
|o----------------------------------------o|
||----------------------------------------||
||-12-10-0-10-0-10-12-0-12-0-12-0-7-8-7-0-||
|o----------------------------------------o|
||----------------------------------------||

Guitar 1
||-----------------------------------------------------------------||
|o-----------------------------------------------------------------o|
||-----------------------------------------------------------------||
||-0---------------3---------------5---------------8-------7-------||
|o-0---------------3---------------5---------------8-------7-------o|
||-0---------------3---------------5---------------8-------7-------||


________________________________________________________________________



Chorus
Guitar 1
|---------------------------------|---------------------------------|
|---------------------------------|---------------------------------|
|---------------------------------|-----------------5---------------|
|-8---------------5---------------|-0---------------5---------------|
|-8---------------5---------------|-0---------------3---------------|
|-8---------------5---------------|-0-------------------------------|

Guitar 1
|---------------------------------|---------------------------------|
|---------------------------------|---------------------------------|
|---------------------------------|-----------------5---------------|
|-5---------------8---------------|-0---------------5---------------|
|-5---------------8---------------|-0---------------3---------------|
|-5---------------8---------------|-0-------------------------------|

|Guitar 2
||----------------------------------------------------------------------------------|
|o----------------------------------------------------------------------------------|
||-14-----12-----10---15-----14-----12---14-----12-----10---------17-------17-------|
||----0-0----0-0----0----0-0----0-0----0----0-0----0-0----0-14-15----14-15----14-15-|
|o----------------------------------------------------------------------------------|
||----------------------------------------------------------------------------------|

Guitar 2
|-----------------------------------------------------------------------------||
|-----------------------------------------------------------------------------o|
|-14-----12-----10---15-----14-----12---14-----12-----9h10p9------------------||
|----0-0----0-0----0----0-0----0-0----0----0-0----0-0--------10~~~~~~~~~~~~~~-||
|-----------------------------------------------------------------------------o|
|-----------------------------------------------------------------------------||


_________________________________________________________________________


Repeat Verse 1

Repeat Verse 2

Repeat Pre-Verse

Repeat Chorus


_________________________________________________________________________


Bridge
Guitar 1
|-----------------------------------------------------------------|
|-----------------------------------------------------------------|
|-----------------------------------------------------------------|
|-----------------------------------------------------------------|
|-0-0---0-M---0-0-0-0---0-M---0-0-0-0---0-M---0-0-0-0---0-M-------|
|-0-0---0-M---0-0-0-0---0-M---0-0-0-0---0-M---0-0-0-0---0-M---0000|
|
|Guitar 2
|-----------------------------------------------------------------|
|-----------------------------------------------------------------|
|-----------------------------------------------------------------|
|-----------------------------------------------------------------|
|-0-0---0-M---0-0-0-0---0-M---0-0-0-0---0-M---0-0-0-0---0-M---x\\-|
|-0-0---0-M---0-0-0-0---0-M---0-0-0-0---0-M---0-0-0-0---0-M---x\\-|

Guitar 1
|-----------------------------------------------------------------|
|-----------------------------------------------------------------|
|-----------------------------------------------------------------|
|-----------------------------------------------------------------|
|-0-0---0---------0-0---0---------0-0---0---------0-0---0---------|
|-0-0---0-----00000-0---0-----00000-0---0-----00000-0---0-----000-|
|
|Guitar 2
|-----------------------------------------------------------------|
|-----------------------------------------------------------------|
|-----------------------------------------------------------------|
|-----------------------------------------------------------------|
|-0-0---0-----x\\-0-0---0-----x\\-0-0---0-----x\\-0-0---0---------|
|-0-0---0-----x\\-0-0---0-----x\\-0-0---0-----x\\-0-0---0-----000-|

_________________________________________________________________________


Solo 1(CKB)
Guitar 1 (Rhythm)
||-------------------------------------|
|o-------------------------------------|
||-------------------------------------|
||-------------------------------------|
|o-------------------------------------|
||-10-12-0-0-0-0-0-0-12-10-0-0-0-0-0-0-|

|-------------------------------------||
|-------------------------------------o|
|-------------------------------------||
|-------------------------------------||
|-------------------------------------o|
|-3p0-0-15p12-0-0-0-3p0-0-0-0-15p12-0-||

Guitar 2 (Lead)
  Tr---
|-22---22-20-17----------------------------------------------------|
|--------------22-20-18-20-18-17-18-17-15--------------------------|
|----------------------------------------17-15-14-17-15-14---------|
|---------------------------------------------------------17-15-14-|
|------------------------------------------------------------------|
|------------------------------------------------------------------|

|---------13h16h17p16p13------------------------|
|-------15--------------15----------------------|
|-----14------------------14---14---13---12~~~~-|
|---15----------------------15------------------|
|-17--------------------------------------------|
|-----------------------------------------------|

|---------------------------------------|
|---------------------------------------|
|-/10-12---14~~~~~~~-----10---12~~~~~~~-|
|--------------------/12----------------|
|---------------------------------------|
|---------------------------------------|

|------------------------------------|
|------------------------------------|
|----10p9----9p7---7p5---5-7PH~~~~~~-|
|-12------10-----8-----7-------------|
|------------------------------------|
|------------------------------------|

|-------------------------------------------|
|-------------------------------------------|
|-7-7-7-9-9-9-10-10-10-12-12-12-14-14-14-14-|
|-------------------------------------------|
|-5-5-5-7-7-7--8--8--8-10-10-10-12-12-12-12-|
|-------------------------------------------|

|--------------------------------------------|
|-------------------6---6-10-6-9-8-6---------|
|-------5---5-7-5-7---7--------------7-7~~~~-|
|-7-5-7---7----------------------------------|
|--------------------------------------------|
|--------------------------------------------|

  ___T___ ___T___ ___T__
|---------------------------------------------------------------------|
|------------------------------------------15-17-18-18-17-15----------|
|---12-14-15-14-12--12-14-15-14-12-14-15-17------------------17-15-14-|
|-15--------------15--------------------------------------------------|
|---------------------------------------------------------------------|
|---------------------------------------------------------------------|

Guitar 2
|---12-13-15-13-12--12-13-15-13-12-|    |---------|
|-15--------------15---------------|    |-(15)~~~-|
|----------------------------------| x3 |---------|
|----------------------------------|    |---------|
|----------------------------------|    |---------|
|----------------------------------|    |---------|
|
|Guitar 3
|---15-17-18-17-15--15-17-18-17-15-|    |---------|
|-18--------------18---------------|    |-(18)~~~-|
|----------------------------------| x3 |---------|
|----------------------------------|    |---------|
|----------------------------------|    |---------|
|----------------------------------|    |---------|



_________________________________________________________________________


Solo 2(MKH)
Guitar 2
|-----------------------------------------------------------------|
|-----------------------------------------------------------------|
|-----------------------------------------------------------------|
|-8-------------------------------5-------------------------------|
|-8-------------------------------5-------------------------------|
|-8-------------------------------5-------------------------------|
|
|Guitar 1
|---------------------------------------------------------------------------------|
|------------------11-13-----11---------------------------------------------------|
|-/14~~~~~~~~~~-14------------------14---14~~~~~~~~~~-14h15p14p12---10---9---12---|
|---------------------------------------------------------------------------------|
|---------------------------------------------------------------------------------|
|---------------------------------------------------------------------------------|
|
|Guitar 3
|---------------------------------------------------------------------------------|
|---------------------------------------------------------------------------------|
|-/10~~~~~~~~~~-10-12-14-----12-----10---10~~~~~~~~~~-10h12p10p9------------------|
|------------------------------------------------------------------12---10---14---|
|---------------------------------------------------------------------------------|
|---------------------------------------------------------------------------------|

Guitar 2
|-----------------------------------------------------------------|
|-----------------------------------------------------------------|
|---------------------------------5-------------------------------|
|-0-------------------------------5-------------------------------|
|-0-------------------------------3-------------------------------|
|-0---------------------------------------------------------------|
|
|Guitar 1
|----------------------------------12----BU----(13)-(12)~~~~~~~~~~~~~-|
|---------------------------------------------------------------------|
|-10~~~~~~~~~~~~~~~~~~~~~~~~~~~~~~------------------------------------|
|---------------------------------------------------------------------|
|---------------------------------------------------------------------|
|---------------------------------------------------------------------|
|
|Guitar 3
|---------------------------------------------------------------------|
|----------------------------------13----BU----(15)-(13)~~~~~~~~~~~~~-|
|-12~~~~~~~~~~~~~~~~~~~~~~~~~~~~~~------------------------------------|
|---------------------------------------------------------------------|
|---------------------------------------------------------------------|
|---------------------------------------------------------------------|

Guitar 2
|-----------------------------------------------------------------|
|-----------------------------------------------------------------|
|-----------------------------------------------------------------|
|-5-------------------------------8-------------------------------|
|-5-------------------------------8-------------------------------|
|-5-------------------------------8-------------------------------|
|
|Guitar 1
|---------------------------------------------------------------------------------|
|------------------11-13-----11---------------------------------------------------|
|-/14~~~~~~~~~~-14------------------14---14~~~~~~~~~~-14h15p14p12---10---9--------|
|----------------------------------------------------------------------------10---|
|---------------------------------------------------------------------------------|
|---------------------------------------------------------------------------------|
|
|Guitar 3
|---------------------------------------------------------------------------------|
|---------------------------------------------------------------------------------|
|-/10~~~~~~~~~~-10-12-14-----12-----10---10~~~~~~~~~~-10h12p10p9------------------|
|------------------------------------------------------------------12---10---7----|
|---------------------------------------------------------------------------------|
|---------------------------------------------------------------------------------|


Guitar 2
|-----------------------------------------------------------------|
|-----------------------------------------------------------------|
|---------------------------------5-------------------------------|
|-0-------------------------------5-------------------------------|
|-0-------------------------------3-------------------------------|
|-0---------------------------------------------------------------|
|
|Guitar 1
|----------------------------------------------------------------------------------15-17-18-|
|-----------------------------------------------------------------15-17-18-15-17-18---------|
|------------------7-9-10--------12-14-15--------14-15-17-14-15-17--------------------------|
|------5-7-8-7-8-10------12-14-15--------14-15-17-------------------------------------------|
|-5-7-8-------------------------------------------------------------------------------------|
|-------------------------------------------------------------------------------------------|

Guitar 1
|-20-----17-----20---20BU(22)~~~~-|
|---------------------------------|
|---------------------------------|
|---------------------------------|
|---------------------------------|
|---------------------------------|
|
|Guitar 3
|---------------------------------|
|-13-----10-----13---13BU(15)~~~~-|
|---------------------------------|
|---------------------------------|
|---------------------------------|
|---------------------------------|


_________________________________________________________________________


Repeat Pre-chorus

Repeat Chorus twice
on the second time the chorus is played, guitar 3
plays the harmony of the lead

Guitar 3
|-----------------------------------------------------------------------------|
|-----------------------------------------------------------------------------|
|-10-----9-----7---12-----10-----9---10-----9-----7---------14-------14-------|
|----0-0---0-0---0----0-0----0-0---0----0-0---0-0---0-10-12----10-12----10-12-|
|-----------------------------------------------------------------------------|
|-----------------------------------------------------------------------------|

|------------------------------------------------------------------------------|
|------------------------------------------------------------------------------|
|-10-----9-----7---12-----10-----9---10-----9-----12h14p12---------------------|
|----0-0---0-0---0----0-0----0-0---0----0-0---0-0----------14~~~~~~~~~~~~~~~~~-|
|------------------------------------------------------------------------------|
|------------------------------------------------------------------------------|

_________________________________________________________________________


Outro
Both guitars
|---------------------------------|
|---------------------------------|
|---------------------------------|
|---------------------------------|
|-0-0---0-M---0-0-0-0---0-M---0-0-|
|-0-0---0-M---0-0-0-0---0-M---0-0-|

_________________________________________________________________________


That's all of it, please rate :)
Suggest correction
comments
print report bad tab
guest
You may want to rate the tab now too:
select rating
Wanna post a correction for this tab? Suggest correction