Oops, an error
Loading. Please wait.

Nowhere To Leave Bootleg Tab

532 views 1 this week
12 commentsread comments
1 2 3 4 5
not so good
x 12
add to favorites
launch autoscroll
font size
0
reset
how to read this tab
guitar tuner
Tab Pro tools
  • play this tab
  • loop segment
  • change instrument
  • show fretboard
  • metronome
Autoscroll
slow
fast
+/-
esc
set tempo
stop
Contributor
Zero Chance
Standard Tuning. 
Intro Riff:

|-11---12-----7--||--------0--|-------------0---|
|--0----0-----5--||--------0--|-------------0---|
|-------------0--||-----------|-------------0---|
|-13---14--------||-4--2---2--|-4--2--2---------|
|-------------7--||-5--3---3--|-5--3--3-----2---|
|-------------0--||-----------|----------3--3---|
  -first ending-          - second ending-
Rhythm 1:
|-----------------------------------------------|
|-------------------------------1^0--------------|
|-------4^2------0-0^2---------------0-----------| ^=pulloff/hammeron
|---0-------------------0^2^0------------0-------| /= slide
|-0---------------------------------------------|
|------------3-----------------------------3/5--|
Rhythm 1 (continued):
|-----5---5-----5/---3--3--3---3---3--3--3---|R
|-----5---5-----5/---3--3--3---3---3--3--3---|E
|-7---7---7-7---7/---5--4--5---5---4--4--5---|P
|-7---7-----7---7/---5--5--5---5---5--5--5---|E
|-5---5-----5---5/---3--3--3---3---3--3--3---|A
|-5---5-----5---5/---3--3--3---3---3--3--3---|T
         
Verse:
|-----------------------------------------------------------------------|
|------------3--0---3-----------3--0------3----------3-0----------------|
|---------0---------0---------0-----------0--------0------4-----0--0--2-|
|------0------------0-------0--------------------0--------4-----3--3--3-|
|---2---------------2-----2-----------4--------2----------------0--0--0-|
|-3-----------------3---3--------------------3---------------0--1--1--1-|
  
Chorus:
    || < repeat > ||
|-3--3--3---3---3-3-3-||-----5---5-----5/--3--3--3---3---3-3-3-||
|-3--3--3---3---3-3-3-||-----5---5-----5/--3--3--3---3---3-3-3-||
|-5--4--4---4---4-4-4-||-7---7---7-7---7/--5--4--4---4---4-4-4-||
|-5--5--5---5---5-5-5-||-7---7-----7---7/--5--5--5---5---5-5-5-||
|-3--3--3---3---3-3-3-||-5---5-----5---5/--3--3--3---3---3-3-3-||
|-3--3--3---3---3-3-3-||-5---5-----5---5/--3--3--3---3---3-3-3-||

Bridge:
|-------------0------------0--------------------0------------0------|
|-------------0------------0--0-----------------0------------0--0---|
|----------0--------------------0------------0--------------------0-|
|-------0----------9--9-9-----------------0----------9--9-9---------| 
|----7-------------9--9-9--------------7-------------9--9-9---------|
|-8--------------0-7--7-7-----------8--------------0-7--7-7---------|
                            

|------------0-------0-----------------------------0--0-------------|
|------------0-------0-----0-0----------3-0--------0--0-------------|
|---------0----------0-----0-0--------0------4-----0--0--0-0--------|
|------0---------9/--5---5----------0--------4-----3--3--3-3--------|
|---7------------9/--5---5--------2----------------0--0--0-0---5/7--|
|-8------------0-7/--3---3------3---------------0--1--1--1-1--------|
                            


this is a bootleg from a concert i saw them at
i brought a tape recorder and i dont know if its a cover or what. but
it kicks testes.use a lot of distortion obviously





now you whores can all eat waste that is shot out of a fat man's shitty ass hole
comments
print report bad tab
12 comments total. Showing first comments. show 1 bad comment
0 reply
NoSoupForYou711 wrote on May 13 2006, 07:05 pm

you ARE a dumbass

+1 reply
dan_the_pie wrote on May 14 2006, 06:03 pm

you slap weiners for money

I want to post or [tab]
guest
You may want to rate the tab now too:
select rating
Please do not post tabs as comments. Select "correction" instead!