Oops, an error
Loading. Please wait.

Of All These Yesterdays Tab

version 3
version 3

Whole song

Interactive

9,013 views 63 this week
no commentswrite comment
1 2 3 4 5
x 11
add to favorites
launch autoscroll
font size
0
reset
how to read this tab
guitar tuner
Autoscroll
slow
fast
+/-
esc
set tempo
stop
Help us to improve Ultimate-Guitar.com Take our survey!
×
Author
Difficulty
Tuning
intermediate
C# G# C# F# A# D#
Band:  Trivium
Song:  Of All These Yesterdays
Album: In Waves

Tuning: Drop C# (C#, G#, C#, F#, A#, D#)
(Tune all strings down half a step then drop tune)

This took me ages, there may be some hidden chords in the first verse
When Matt begins to sing... It sounds as if there is in places.
But other than that this should be spot on to the record.

Please rate, comment, correct, anything that helps :)

Hammer on:    h
Pull off:     p
Slide up:     /
Slide down:   \
Bend up:      BU(?)

Guitar 1:        Matt Heafy
Guitar 2:        Corey Beaulieu
Acoustic guitar: Matt Heafy


Verse 1
Acoustic guitar
|-------------------------------------------------|
|-------------------------------------------------|
|-------------------------------------------------|
|---------0-----------3-----------0-------3p0-----|
|-----0-----------0-----------0---------------0---|
|-3-3---3-----0-0---0-----3-3---3-----0-0---------|

|-------------------------------------------------|
|-------------------------------------------------|
|-------------------------------------------------|
|---------0-----------3-------0---0-------2---2---|
|-----0-----------0-------0-0---0-----4-4---4-----|
|-3-3---3-----0-0---0-----------------------------|


Verse 2
Acoustic guitar
|---------------------------------|---------------------------------|
|---------------------------------|---------------------------------|
|-------0-------0-------0-------0-|---2p0-----2p0-----2p0-----2p0---|
|---0h3-----0h3-----0h3-----0h3---|-------3-------3-------3-------3-|
|-1-------1-------1-------1-------|---------------------------------|
|---------------------------------|-0-------0-------0-------0-------|

|---------------------------------|---------------------------------|
|---------------------------------|---------------------------------|
|-------0-------0-------0-------0-|-------0-------0-------0-------0-|
|---0h3-----0h3-----0h3-----0h3---|---0p2-----0p2-----0p2-----0p2---|
|-1-------1-------1-------1-------|-3-------3-------3-------3-------|
|---------------------------------|---------------------------------|


Chorus
Guitar 1
|---------------------------------|---------------------------------|
|---------------------------------|---------------------------------|
|---------------------------------|---------------------------------|
|---------------------------------|---------------------------------|
|-8-8-8-8-8-8-8-8-8-8-8-8-8-8-8-8-|-0-0-0-0-0-0-0-0-0-0-0-0-0-0-0-0-|
|-8-8-8-8-8-8-8-8-8-8-8-8-8-8-8-8-|-0-0-0-0-0-0-0-0-0-0-0-0-0-0-0-0-|

|---------------------------------|---------------------------------|
|---------------------------------|---------------------------------|
|---------------------------------|---------------------------------|
|---------------------------------|-5-5-5-5-5-5-5-5-5-5-5-5-5-5-5-5-|
|-3-3-3-3-3-3-3-3-3-3-3-3-3-3-3-3-|-3-3-3-3-3-3-3-3-3-3-3-3-3-3-3-3-|
|-3-3-3-3-3-3-3-3-3-3-3-3-3-3-3-3-|---------------------------------|

Guitar 2
||-------------------------------------------------||
|o-------------------------------------------------o| x3
||-10-10-10-10-10-10-10-10-10-10-10-10-12-12-14-14-||
||-------------------------------------------------||
|o--8--8--8--8--8--8--8--8--8--8--8--8-10-10-12-12-o|
||-------------------------------------------------||

|---------------------------------|
|---------------------------------|
|-9-9-9-9-9-9-9-9-9-9-9-9-9-9-9-9-|
|---------------------------------|
|-7-7-7-7-7-7-7-7-7-7-7-7-7-7-7-7-|
|---------------------------------|


Repeat Verse 1


Repeat Chorus x2


Solo
Guitar 1 (Rhythm)
|-----------------|-----------------|-----------------|
|-----------------|-----------------|-----------------|
|-----------------|-7---------------|---------6h7-7/9-|
|-----4h5---------|-----8-------8---|-----------------|
|-------------8-8-|---------5-5-----|-5---0-0---------|
|-0-0-----0-0-8-8-|---------5-5-----|-5---------------|

|-----------------|-----------------|-----------------|
|-----------------|-----------------|-----------------|
|-----------------|-7---------------|-----------------|
|-----4h5---------|-----8-------8---|-----2-2-2-7-7-7-|
|-------------8-8-|---------5-5-----|-5---0-0-0-4-4-4-|
|-0-0-----0-0-8-8-|---------5-5-----|-5---------------|

Guitar 2 (Lead)
|-----------------|-----------------|-----------------|
|-----------5-6---|---------6-/-8-6-|-----5-----------|
|-7-------5-------|-----------------|-----------6-----|
|---0-5-7---------|-----------------|-----------------|
|-----------------|-----------------|-----------------|
|-----------------|-----------------|-----------------|

|-----------------|-----------------|-----------------|
|-----------5-6---|---------6-/-8-6-|---/10-----------|
|-7-------5-------|-----------------|-----------9-----|
|---0-5-7---------|-----------------|-----------------|
|-----------------|-----------------|-----------------|
|-----------------|-----------------|-----------------|

|-8---------------------------------|---------------------------------|
|-8BU(10)(8)-6---6-8-8BU(10)(8)p6---|---------------------------------|
|--------------7------------------7-|-5---7---------------------------|
|-----------------------------------|---------------------10h12-------|
|-----------------------------------|---------------10h12-------10h12-|
|-----------------------------------|---------12h15-------------------|

|-------------------------------------------10h13-|
|-------------------------10h13-------10h13-------|
|-------10h12-------10h12-------10h12-------------|
|-10h12-------10h12-------------------------------|
|-------------------------------------------------|
|-------------------------------------------------|

|-10------------12-13---|-------13BU(15)(13)-|-----17-----21-----|-22-|
|---------10-13---------|--------------------|-------------------|----|
|------12---------------|--------------------|-------------------|----|
|----0------------------|--------------------|-------------------|----|
|-----------------------|--------------------|-------------------|----|
|-----------------------|--------------------|-------------------|----|


Verse 3 part 1
Guitar 1
|-----------------|-----------------|
|-----------------|-----------------|
|-----------------|-----------------|
|-0---------------|-8---------------|
|-0---------------|-8---------------|
|-0---------------|-8---------------|

|-----------------|-----------------|
|-----------------|-----------------|
|-----------------|-----------------|
|-5---------------|-3-------7-------|
|-5---------------|-3-------7-------|
|-5---------------|-3-------7-------|

Guitar 2
|--------------------|-----------------|
|--------------------|-----------------|
|-10-10-10-7-7-7-7-7-|-7-7-7-7-7-7-7-7-|
|--------------------|-----------------|
|--------------------|-----------------|
|--------------------|-----------------|

|----------------------|-------------------------|
|----------------------|-------------------------|
|-9-9-9-10-10-10-------|-------------------------|
|----------------10-10-|-10-10-10-10-10-10-10-10-|
|----------------------|-------------------------|
|----------------------|-------------------------|

|-----------------|-----------------|
|-8-8-8-----------|-----------------|
|-------7-7-7-7-7-|-7-7-7-7-7-7-7-7-|
|-----------------|-----------------|
|-----------------|-----------------|
|-----------------|-----------------|

|-------------------------|-------------------------|
|-10-10-10----------------|-------------------------|
|----------10-10-10-10-10-|-12-12-12-12-12-12-12-12-|
|-------------------------|-------------------------|
|-------------------------|-------------------------|
|-------------------------|-------------------------|


Verse 3 part 2
Guitar 1
|------------------------|------------------------|
|------------------------|------------------------|
|------------------------|------------------------|
|-0------0---------------|-8------8---------------|
|-0------0---------------|-8------8---------------|
|-0--000-0--000-00000000-|-8--888-8--888-88888888-|

|------------------------|------------------------|
|------------------------|------------------------|
|------------------------|------------------------|
|-5------5---------------|-3------3---------------|
|-5------5---------------|-3------3---------------|
|-5--555-5--555-55555555-|-3--333-3--777-77777777-|

Guitar 2
|--------------------|-----------------|
|--------------------|-----------------|
|-10-10-10-7-7-7-7-7-|-7-7-7-7-7-7-7-7-|
|--------------------|-----------------|
|--------------------|-----------------|
|--------------------|-----------------|

|----------------------|-------------------------|
|----------------------|-------------------------|
|-9-9-9-10-10-10-------|-------------------------|
|----------------10-10-|-10-10-10-10-10-10-10-10-|
|----------------------|-------------------------|
|----------------------|-------------------------|

|-----------------|-----------------|
|-8-8-8-----------|-----------------|
|-------7-7-7-7-7-|-7-7-7-7-7-7-7-7-|
|-----------------|-----------------|
|-----------------|-----------------|
|-----------------|-----------------|

|-------------------------|-------------------------|
|-10-10-10----------------|----------14-14-14-14-14-|
|----------10-10-10-10-10-|-10-10-10----------------|
|-------------------------|-------------------------|
|-------------------------|-------------------------|
|-------------------------|-------------------------|


Repeat Chorus x2

An added harmony plays this
|-10-10-10p8-8-8-8p6-6-6-6p5-5-5-5h6-|
|------------------------------------|
|------------------------------------|
|------------------------------------|
|------------------------------------|
|------------------------------------|

|-10-10-10p8-8-8-8p6-6-6-6p5-5-5-5h6-|
|------------------------------------|
|------------------------------------|
|------------------------------------|
|------------------------------------|
|------------------------------------|

|------------------------------------|
|-10-10-10p8-8-8-8p6-6-6-6p5-8-8-8---|
|------------------------------------|
|------------------------------------|
|------------------------------------|
|------------------------------------|

|-----------------------------------|
|-5h6-8-------6---5-----------------|
|---------------------5-------------|
|-----------------------------------|
|-----------------------------------|
|-----------------------------------|


Repeat Verse 2


Outro
Guitar 1
|-------|
|-------|
|-5-----|
|-5-----|
|-3-----|
|-------|

Guitar 2
|-------|
|-13----|
|-------|
|-10----|
|-------|
|-------|

That's all guys, please rate :)
Suggest correction
comments
print report bad tab
guest
You may want to rate the tab now too:
select rating
Wanna post a correction for this tab? Suggest correction