Oops, an error
Loading. Please wait.

Pull Harder On The Strings Of Your Martyr Tab

version 2
version 2
9,136 views 1 this week
3 commentsread comments
1 2 3 4 5
accurate
x 12
add to favorites
launch autoscroll
font size
0
reset
how to read this tab
guitar tuner
Autoscroll
slow
fast
+/-
esc
set tempo
stop
Help us to improve Ultimate-Guitar.com Take our survey!
×
Author
ARTIST: Trivium
TITLE:  Pull Harder On The Strings Of Your Martyr
TABBER: Luke Charman (emoluke {AT} gmail.com)
ALBUM:  Ascendancy
GENRE:  Metal
YEAR:   2005

This should all be right, except the solo.

Enjoy!

----------------------------------------------------------------------------
These are the parts for the lead guitar, Corey Beaulieu:
----------------------------------------------------------------------------

Intro/Verse Riff:

e|---------------------------------------------------------------------|
B|---------------------------------------------------------------------|
G|---------------------------------------------------------------------|
D|-7--------------7-8--------------8-8--------------8-7----------------|
A|-5-000000000000-5-5-000000000000-5-6-555555555555-6-6-77777777777777-|
D|---000000000000-----000000000000-----555555555555-----77777777777777-|
     ............     ............     ............     ..............

Post-Intro Riff:

e|--------------------------------------------------------|
B|--------------------------------------------------------|
G|-15-14-14-12-12-12-12--15-14-14-17-17-12-12-14-14-14-14-|
D|--x--x--x--x--x--x--x---x--x--x--x--x--x--x--x--x--x--x-|
A|-13-12-12-10-10-10-10--13-12-12-15-15-10-10-12-12-12-12-|
D|--------------------------------------------------------|

Pre-Chorus Riff:

e|----------------------------------------|
B|----------------------------------------|
G|-------14-14-14-14-------12-12-12-12-12-|
D|-0-1-0--x--x--x--x-0-1-0--x--x--x--x--x-|
A|-0-1-0-12-12-12-12-0-1-0-10-10-10-10-10-|
D|-0-1-0-------------0-1-0----------------|

e|----------------------------------------|
B|----------------------------------------|
G|-------14-14-14-14-------12-12-12-12-12-|
D|-0-1-0--x--x--x--x-0-1-0--x--x--x--x--x-|
A|-0-1-0-12-12-12-12-0-1-0-10-10-10-10-10-|
D|-0-1-0-------------0-1-0----------------|

e|-----------------------------------------|
B|-----------------------------------------|
G|---------14-14-14-14---------12-12-12-12-|
D|-7-8-8-8--x--x--x--x-7-8-8-8--x--x--x--x-|
A|-7-8-8-8-12-12-12-12-7-8-8-8-10-10-10-10-|
D|-7-8-8-8-------------7-8-8-8-------------|

e|-----------------------------------------------|
B|-----------------------------------------------|
G|---------14-14-14-14------------17-17-17-17-17-|
D|-7-8-8-8--x--x--x--x-7-10-10-10--x--x--x--x--x-|
A|-7-8-8-8-12-12-12-12-7-10-10-10-15-15-15-15-15-|
D|-7-8-8-8-------------7-10-10-10----------------|

Chorus Riff:

e|------------------------------------------|
B|------------------------------------------|
G|------------------------------------------|
D|-0---10-----------------------------------|
A|-0----8---10-------10-8~-10h12p10p8h10h12-|
D|-0-0----0-10-0-8~-------------------------|
     .    .    .

e|----------------------------------------|
B|----------------------------------------|
G|----------------------------------------|
D|-10-10-10-10-10-10-10-7-7-7-7-7-8-8-8-8-|
A|--8--8--8--8--8--8--8-5-5-5-5-5-5-5-5-5-|
D|--8--8--8--8--8--8--8-5-5-5-5-5-5-5-5-5-|

Breakdown Riff:

e|---------------------------------------------------------|
B|---------------------------------------------------------|
G|------------------------------------------------7-9-10-9-|
D|-----------------7-----5------------------------x-x--x-x-|
A|-----5-----8-----------------8------5-----8-----5-7--8-7-|
D|-0-0---0-0---0-0---0-0---0-0----0-0---0-0---0-0----------|
   . .   . .   . .   . .   . .    . .   . .   . .

e|--------------------------------------------------|
B|--------------------------------------------------|
G|--------------------------------------------------|
D|-----------------5--------------------------------|
A|-----5-----8-----------8-----7*-----5-----8-----7-|
D|-8-8---8-8---8-8---8-8---8-8----8-8---8-8---8-8---|
   . .   . .   . .   . .   . .    . .   . .   . .

Breakdown Riff Endings
  (Take off the last 7 from the riff above and play these):

    e|-----------|     e|-----------------|     e|------------------|
    B|-----------|     B|-----------------|     B|------------------|
(A) G|-----------| (B) G|-----------------| (C) G|------------------|
    D|-----------|     D|-----------------|     D|------------------|
    A|-7---------|     A|-----8---7---5---|     A|-10---8---7---5---|
    D|---7777777-|     D|-7-7---7---7---7-|     D|----7---7---7---7-|
         .......          . .   .   .   .             .   .   .   .

Solo:
  (It isn't perfect or all here, but I did my best):

e|------------------------------------------------------------------------|
B|------------------------------------------------------------------------|
G|-----------------------------12-----------------------------------------|
D|-11b12~-12-14-12-14-15-14-15----15-14-12-14-11b12~----14*--11b12~-------|
A|---------------------------------------------------12-------------12-12-|
D|------------------------------------------------------------------------|

e|--------------------------------------|
B|--------------------------------------|
G|-------------------9-10-9----9--------| Some mega-fast hammer-ons up the
D|-----7---7-10-7-10--------10---10-7---|  strings after this, based on the
A|-7-8---8----------------------------8-|   same notes here.
D|--------------------------------------|

This was about as much of the solo as I could get I'm afraid, but it ends on
the 22nd fret of the high E string.

----------------------------------------------------------------------------
These are the parts for the rhythm guitar, Matt Heafy:
----------------------------------------------------------------------------

Intro/Verse Riff:

e|---------------------------------------------------------------------|
B|---------------------------------------------------------------------|
G|---------------------------------------------------------------------|
D|-7--------------7-8--------------8-8--------------8-7----------------|
A|-5-000000000000-5-5-000000000000-5-6-555555555555-6-6-77777777777777-|
D|---000000000000-----000000000000-----555555555555-----77777777777777-|
     ............     ............     ............     ..............

Post-Intro Riff:

e|-----------------------------------------------|
B|-----------------------------------------------|
G|-----------------------------------------------|
D|-0--0-0--0-0-0-0---5--5-5--5-5-5-7--7-7--7-7-7-|
A|-0--0-0--0-0-0-0---5--5-5--5-5-5-7--7-7--7-7-7-|
D|-0--0-0--0-0-0-0---5--5-5--5-5-5-7--7-7--7-7-7-|

Pre-Chorus Riff:

e|----------------------------------------|
B|----------------------------------------|
G|-------14-14-14-14-------12-12-12-12-12-|
D|-0-1-0--x--x--x--x-0-1-0--x--x--x--x--x-|
A|-0-1-0-12-12-12-12-0-1-0-10-10-10-10-10-|
D|-0-1-0-------------0-1-0----------------|

e|----------------------------------------|
B|----------------------------------------|
G|-------14-14-14-14-------12-12-12-12-12-|
D|-0-1-0--x--x--x--x-0-1-0--x--x--x--x--x-|
A|-0-1-0-12-12-12-12-0-1-0-10-10-10-10-10-|
D|-0-1-0-------------0-1-0----------------|

e|-----------------------------------------|
B|-----------------------------------------|
G|---------14-14-14-14---------12-12-12-12-|
D|-7-8-8-8--x--x--x--x-7-8-8-8--x--x--x--x-|
A|-7-8-8-8-12-12-12-12-7-8-8-8-10-10-10-10-|
D|-7-8-8-8-------------7-8-8-8-------------|

e|-----------------------------------------------|
B|-----------------------------------------------|
G|---------14-14-14-14------------17-17-17-17-17-|
D|-7-8-8-8--x--x--x--x-7-10-10-10--x--x--x--x--x-|
A|-7-8-8-8-12-12-12-12-7-10-10-10-15-15-15-15-15-|
D|-7-8-8-8-------------7-10-10-10----------------|

Chorus Riff:

e|----------------------------------------------|
B|----------------------------------------------|
G|----------------------------------------------|
D|-0-----10-10-10-10-10-10-10-7-7-7-7-7-8-8-8-8-|
A|-0------8--8--8--8--8--8--8-5-5-5-5-5-5-5-5-5-|
D|-0------8--8--8--8--8--8--8-5-5-5-5-5-5-5-5-5-|

Breakdown Riff:

e|-------------------------------------------------------|
B|-------------------------------------------------------|
G|-------------------------------------------------------|
D|-00-00-00----00-00-00000000-88-88-88----88-88-77777777-|
A|-00-00-00----00-00-00000000-88-88-88----88-88-77777777-|
D|-00-00-00----00-00-00000000-88-88-88----88-88-77777777-|
   .. .. ..    .. .. ........ .. .. ..    .. .. ........

Solo Backing Chords:
  (Each chord is played 32 times, very quickly)
  (I know the 11 is a weird chord to have there, but it's right).

e|----------------|
B|----------------|
G|----------------|
D|-0---8---3---11-|
A|-0---8---3---11-|
D|-0---8---3---11-|

----------------------------------------------------------------------------
Song Order:
----------------------------------------------------------------------------

Both Guitars        - Intro/Verse     - x2
Both Guitars        - Post-Intro      - x2
Both Guitars        - Intro/Verse     - x2
Both Guitars        - Pre-Chorus      - x2
Both Guitars        - Chorus          - x2
Both Guitars        - Intro/Verse     - x2
Both Guitars        - Pre-Chorus      - x4
Both Guitars        - Chorus          - x4
Lead Guitar Only    - Breakdown       - x1
Both Guitars        - Breakdown       - x1, with ending A
Both Guitars        - Breakdown       - x1, with ending B
Both Guitars        - Breakdown       - x2, with ending C

Both Guitars        - Pre-Chorus      - x2, lead joins midway through
Both Guitars        - Chorus          - x4
Both Guitars        - Intro/Verse     - x2, end on last 6/7

----------------------------------------------------------------------------
Comments? Questions? Corrections? emoluke {AT} gmail.com
----------------------------------------------------------------------------
Suggest correction
What's this?
You can suggest a correction to this tab. Community and Mods will review your correction and vote to approve or reject it.
comments
print report bad tab
3 comments total.
0 reply
metal_man696 119 wrote on July 27 2005, 12:00 am

good but can you next time put the 2 guitar parts together insted of apart. GOD!

0 reply
A7X Skater 12 wrote on October 13 2006, 12:43 am

This is an amazing tab i can play the song now thanks so much. love this song!

0 reply
eddiesclone 453 wrote on March 15 2007, 09:39 am

All wrong!

guest
You may want to rate the tab now too:
select rating
Please do not post tabs as comments. Select "correction" instead!