Oops, an error
Loading. Please wait.

Rain Tab

version 1
63,086 views 66 this week
22 commentsread comments
1 2 3 4 5
x 38
add to favorites
launch autoscroll
font size
0
reset
how to read this tab
guitar tuner
backing track
0:00
0:00
×
Best way to learn
"Rain"
Autoscroll
slow
fast
+/-
esc
set tempo
stop
Author
Tuning
  follow
D A D G B E
RAIN
                             As recorded by Trivium
                               (From ASCENDANCY)

By Curt :)

All In Drop D

[Intro / Verse]
E|-------------------|-----------------------| -----------------------)
B|-------------------|-----------------------|                        )
G|-------------------|-----------------------|                        ) 
D|-------------------|-----------------------|                        )
A|-5---------6-3-----|-----------------------|                        )
D|---0-0-0-0-----0-0-|-0-0-0-0-0-0-0-0-0-0-0-|                        )
                                                                    X4
E|-------------------|-----------------------|                        )
B|-------------------|-----------------------|                        )
G|-------------------|-----------------------|                        )
D|-----------5-4-----|-----------------------|                        )
A|-5-----------------|-----------------------|                        )
D|---0-0-0-0-----0-0-|-0-0-0-0-0-0-0-0-0-0-0-|------------------------)

E|-------------------|--------------------|
B|-------------------|--------------------|
G|-------------------|--------------------|only play this bit on the 4th time
D|-----------5-4-----|--------------------|
A|-5-----------------|-6-8---8--6----5-6--|
D|---0-0-0-0-----0-0-|-----0-------0------|
Repeat the verse another 4 times

[Chorus] (with no singing)
E|------------------|------------------|------------------|------------------|
B|-7--7s8-(8)---7-8-|-10--8---7---8----|-7--7s8-(8)---7-8-|-10--8---7---8----|
G|------------------|------------------|------------------|------------------|
D|-4--4s5-(5)---4-5-|--7--5---4---5----|-4--4s5-(5)---4-5-|--7--5---4---5----|
A|------------------|------------------|------------------|------------------|
D|------------------|------------------|------------------|------------------|

[Verse] X4
E|-------------------|-----------------------| -----------------------)
B|-------------------|-----------------------|                        )
G|-------------------|-----------------------|                        ) 
D|-------------------|-----------------------|                        )
A|-5---------6-3-----|-----------------------|                        )
D|---0-0-0-0-----0-0-|-0-0-0-0-0-0-0-0-0-0-0-|                        )
                                                                    X4
E|-------------------|-----------------------|                        )
B|-------------------|-----------------------|                        )
G|-------------------|-----------------------|                        )
D|-----------5-4-----|-----------------------|                        )
A|-5-----------------|-----------------------|                        )
D|---0-0-0-0-----0-0-|-0-0-0-0-0-0-0-0-0-0-0-|------------------------)

E|-------------------|--------------------|
B|-------------------|--------------------|
G|-------------------|--------------------|only play this bit on the 4th time
D|-----------5-4-----|--------------------|
A|-5-----------------|-6-8---8--6----5-6--|
D|---0-0-0-0-----0-0-|-----0-------0------|

[Pre-Chorus] Repeat Twice
 Guitar 1
E|-----------------|-------------------|----------------|------------------|
B|-----------------|-------------------|----------------|------------------|
G|-----------------|-------------------|----------------|------------------|
D|-----------------|-------------------|----------------|------------------|
A|-5-----3-----5---|-------8---7---5-7-|-------5-----7--|-----8---7---7h8--|
D|---0-0---0-0---0-|--0--0---0---0-----|-8-8-8---8-8----|-5-5---5---5------|

 Guitar 2
E|-----------------|-------------------|----------------|------------------|
B|-----------------|-------------------|----------------|------------------|
G|-----------------|-------------------|-3--------------|------------------|
D|-0---------------|-(0)---------------|-3--------------|-5----------------|
A|-0---------------|-(0)---------------|-1--------------|-5----------------|
D|-0---------------|-(0)---------------|----------------|-5----------------|

E|-------------------|--------------------|
B|-------------------|--------------------|
G|-------------------|--------------------|
D|-------------------|--------------------|
A|-12-----10---------|-----12---13---12---|
D|----8-8----8-8-8-8-|-8-8----8----8------|

E|-------------------------|-------------------|
B|-------------------------|-------------------|
G|-------------------------|-------------------|
D|-------------------------|-8-7-5---7---------|
A|-12-------10-------------|-------6---10-6-5--|
D|----10-10----10-10-10-10-|-------------------|

[Chorus] Repeat Twice
E|-------------------|------------------|
B|o-7--7s8-(8)---7-8-|-10--8---7---8----|
G|-------------------|------------------|
D|--4--4s5-(5)---4-5-|--7--5---4---5----|
A|o------------------|------------------|
D|-------------------|------------------|

E|------------------|--------------------||
B|-7--7s8-(8)---7-8-|-10--8---7---8-----o||
G|------------------|--------------------||
D|-4--4s5-(5)---4-5-|--7--5---4---5------||
A|------------------|-------------------o||
D|------------------|--------------------||

-----------------------------------------------------------------------------
       REPEAT EVERY THING ABOVE AGAIN EXEPT CHORUS WITH NO SINGING
----------------------------------------------------------------------------

[Interlude]
 Guitar 1
E|-----------|-------------||---------------|----------------||
B|-----------|-------------||o--------------|---------------o||
G|-10--------|-(10)--------||--10----5---3--|-7----14--12----||
D|-----------|-------------||---------------|----------------||
A|--8--------|--(8)--------||o--8----3---1--|-5----12--10---o||
D|-----------|-------------||---------------|----------------||

 Guitar 2
E|-----------|-------------||---------------|----------------||
B|-----------|-------------||o--------------|---------------o||
G|--7--------|--(7)--------||---7----9--10--|-3----10---9----||
D|-----------|-------------||---------------|----------------||
A|--5--------|--(5)--------||o--5----7---8--|-1-----8---7---o||
D|-----------|-------------||---------------|----------------||

 Guitar 1
E|--------------------------------|------------------------------------------|
B|--------------------13----------|------------------------------------------|
G|----14----15-----15----15----12-|------14----15----------------------------|
D|-------12----12-----------10----|---------12----12----15-14----17-15-------|
A|--------------------------------|------------------13-------13-------13-17-|
D|--------------------------------|------------------------------------------|

E|----------------------------------|----------------------------------------|
B|----------------------13----------|----------------------------------------|
G|-----14----15------15----15----12-|----14----15----------------------------|
D|--------12----12------------10----|-------12----12----15-14----17-15-------|
A|----------------------------------|----------------13-------13-------13-17-|
D|----------------------------------|----------------------------------------|

 Guitar 2 second time only 
E|----------------------------------|----------------------------------------|
B|----------------------------------|----------------------------------------|
G|--7--------------9----10----------|-3--------------10-----------9----------|
D|----------------------------------|----------------------------------------|
A|--5--------------7-----8----------|-1---------------8-----------7----------|
D|----------------------------------|----------------------------------------|

 Guitar 2 When Singing starts 
E|-------------------------------------------|
B|o------------------------------------------|
G|-------------------------------------------|
D|-------------------------------------------|
A|o-0-0-0-0-------------0-0-0----------------|
D|--0-0-0-0-------------0-0-0----------------|

E|--------------------------------------------|
B|-------------------------------------------o|
G|--------------------------------------------|
D|--------------------------------------------|
A|-0-0-0-0--------------0--0--------0--0-----o|
D|-0-0-0-0--------------0--0--------0--0------|

E|-------------------------------------------|
B|-------------------------------------------|
G|-9-9-9-9-9-9-9-9-0-10-10-10-10-10----------|
D|-------------------------------------------|
A|-7-7-7-7-7-7-7-7-8-8-8-8-8-8-8-8-----------|
D|-------------------------------------------|

E|---------------------------------------------------|
B|---------------------------------------------------|
G|-12-12-12-12-12-12-12-12--14-14-14-14-14-14-14-14--|
D|---------------------------------------------------|
A|-10-10-10-10-10-10-10-10--12-12-12-12-12-12-12-12--|
D|----------------------------------------------------|

[Guitar Solo]
   N.C.
E|----------------|-----------------|-------------|
B|----------------|-----------------|-------------|
G|-5pb7r5---------|-5pb7r5----------|--5-------5--|
D|--------7-------|--------7--------|------7------|
A|----------8-----|----------7--8---|-------------|
D|----------------|-----------------|-------------|

E|------------------------------------------------|
B|-------------------10----------------13---------|
G|------------------------------------------------|
D|------------------------------------------------|
A|------------------------------------------------|
D|------------------------------------------------|

E|-----------12----12b13---(12)-|-12r-12-------------------------------------|
B|-13b15-13r----15--------------|-------15-----------------------------------|
G|------------------------------|----------14--------------------------------|
D|------------------------------|------------14-15-15b17--r15-14-12-15-14-17-|
A|------------------------------|--------------------------------------------|
D|------------------------------|--------------------------------------------|

E|-------17-15-13------------------------------------|
B|----------------17-15-13---------------------------|
G|-------------------------16-14-13------------------|
D|-15-19----------------------------16-14-13-15-19---|
A|---------------------------------------------------|
D|---------------------------------------------------|

E|------------------------------------------|
B|------------------------------------------|
G|------------------------------------------|
D|------------------------------------------|
A|------------------------------------------|
D|-0-0-0-0-0-0-0-0-1-0-0-0-0-0-0-0-0-0-1-0--|

E|----------------------------------------------|
B|----------------------------------------------|
G|--------------------------------------------5-|
D|------------------------------8-----------8---|
A|----------------------5---6-----6-5---6-------|
D|-0-0-0-0-0-0-0-0-1-0--------------------------|

[End On]
E|----------|
B|----------|
G|----------|
D|-0--------|
A|-0--------|
D|-0--------|
Suggest correction
comments
print report bad tab
22 comments total. Showing first comments.
-1 reply
metal_man696 10 Aug 10, 2005 08:00 PM

it sounds alright but the part where guitar two goes
|-------------------| |-------------------
|-------------------| |-------------------
|-------------------|should be |------------12\11--
|-----------5-4-----| |-------------------
|-5-----------------| |-5----------10\9---
|---0-0-0-0-----0-0-| |---0-0-0-0---------


octave chords not single notes

0 reply
metal_man696 10 Aug 10, 2005 08:00 PM

alright i screwed this *** up but you get the idea

0 reply
bassest123 75 Aug 17, 2005 08:00 PM

yea now that i listen to it, ur way does sound the way that they play it. thanks for that.

guest
You may want to rate the tab now too:
select rating
Wanna post a correction for this tab? Suggest correction