Oops, an error
Loading. Please wait.

Rain Tab

version 3
31,309 views 12 this week
8 commentsread comments
1 2 3 4 5
accurate
x 17
add to favorites
launch autoscroll
font size
0
reset
how to read this tab
guitar tuner
Autoscroll
slow
fast
+/-
esc
set tempo
stop
Help us to improve Ultimate-Guitar.com Take our survey!
×
This tab is pretty much 100% correct but im not too sure about the ending
parts but other than that were good.. sorry if its confusing its only the
parts of the song there not really put in order and i didnt put how times
it played.. but enjoy anyways!

Intro Gtr.1
|---------------------------------------------------------------------|
|---------------------------------------------------------------------|
|--------------------------------------------12\10--------------------|
|---------------------------------------------x--x--------------------|
|-5---------6-3---------------------5--------10\-9--------------------|
|---0-000------0-0-000-0-000-0-000----0-000-------0-0-000-0-000-0-000-|
|pm . ...      . . ... . ... . ...    . ...       . . ... . ... . ...                    
                                                |
|---------------------------------------------------------------------|
|---------------------------------------------------------------------|
|--------------------------------------------12\10----8/10-10\8-7-8---|
|---------------------------------------------x--x----x--x--x-x-x-----|
|-5---------6-3---------------------5--------10\-9----6/-8--8\6-5/6 --|
|---0-000------0-0-000-0-000-0-000----0-000-------0-0-----0----0------|
pm  . ...      . . ... . ... . ...    . ...       . .     .    .
Gtr.2
|---------------------------------------------------------------------|
|---------------------------------------------------------------------|
|---------------------------------------------8\-5--------------------|
|-7---------8-5---------------------7---------x--x--------------------|
|-5---------6-3---------------------5---------6\-7--------------------|
|------------------------------------------------------xxxxxxxxxxx12\-|
Gtr.2 2nd time                                              x=pickscrapes
|---------------------------------------------------------------------|
|---------------------------------------------------------------------|
|---------------------------------------------8\-7--------------------|
|---------------------------------------------x--x--------------------|
|-5---------6-3---------------------5---------6\-5--------------------|
|---0-000------0-0-000-0-000-0-000----0-000-------0-0-000-0-000-0-000-|
pm  . ...      . . ... . ... . ...    . ...       . . ... . ... . ...
Gtr.1
|-------------------------------------------------------|
|-------------------------------------------------------|
|-------------------------------------------------------|
|-0---0--1---0---0--1--7--8--0---0--1---0---0--1--8--10-|
|-0---0--1---0---0--1--7--8--0---0--1---0---0--1--8--10-|
|-0---0--1---0---0--1--7--8--0---0--1---0---0--1--8--10-|
Gtr.2
|------------------------------|
|------------------------------|
|11~-11/12-11-12-14-12-11-12-8-|
|-x---x--x--x--x--x--x--x--x-x-|(x2)
|-9~--9/10--9-10-12-10--9-10-6-|
|------------------------------|

Pre-Chorus
Gtr.1
|-----------------|-------------------|----------------|------------------|
|-----------------|-------------------|----------------|------------------|
|-----------------|-------------------|----------------|------------------|
|-----------------|-------------------|----------------|------------------|
|-5-----3-----5---|-------8---7---5-7-|-------5-----7--|-----8---7---5h7--|
|---0-0---0-0---0-|--0--0---0---0-----|-8-8-8---8-8----|-5-5---5---5------|
Gtr.2
|-----------------|-------------------|----------------|------------------|
|-----------------|-------------------|----------------|------------------|
|-----------------|-------------------|----------------|------------------|
|-0---------------|-(0)---------------|-8--------------|-5----------------|
|-0---------------|-(0)---------------|-8--------------|-5----------------|
|-0---------------|-(0)---------------|-8--------------|-5----------------|

|-----------------|-------------------|----------------|------------------|
|-----------------|-------------------|----------------|------------------|
|-----------------|-------------------|----------------|------------------|
|-----------------|-------------------|----------------|------------------|
|-5-----3-----5---|-------8---7---5-7-|-------5-----7--|-----8---7---7h8--|
|---0-0---0-0---0-|--0--0---0---0-----|-8-8-8---8-8----|-5-5---5---5------|

|-----------------|-------------------|----------------|------------------|
|-----------------|-------------------|----------------|------------------|
|-----------------|-------------------|----------------|------------------|
|-0---------------|-(0)---------------|-8--------------|-10---------------|
|-0---------------|-(0)---------------|-8--------------|-10---------------|
|-0---------------|-(0)---------------|-8--------------|-10---------------|
both Gtrs
|--------------------------------------------------------------|
|--------------------------------------------------------------|
|--------------------------------------------------------------|
|--------------------------------------------------------------|
|-12-----10--------------12---13---12---12-------10------------|
|----8-8----8-8-8-8--8-8----8----8--------10-10----10-10-10-10-|
pm   . .    . . . .  . .    .    .         .  .     .  .  .  .
------------------------|
------------------------|
------------------------|
------------------------|
-13-12-10---12-10-------|
----------13------13-12-|

|--------------|
|--------------|
|--------------|
|-0~-----------|(played with intro gtr.1)
|-0~-----------|
|-0~-----------|
Then..
|---------------------------------------------------------|
|---------------------------------------------------------|
|-15-15-15-15-14-14-14-14-12-12-12-12-11-11-11-11-8-8-8-8-|
|--x--x--x--x--x--x--x--x--x--x--x--x--x--x--x--x-x-x-x-x-|
|-13-13-13-13-12-12-12-12-10-10-10-10--9--9--9--9-6-6-6-6-|
|---------------------------------------------------------|

Interlude
Gtr.1
|-------------------------------------------------------|
|-------------------------------------------------------|
|-10---------(10)----------10----5---3---7----14--12----|
|--x------------------------x----x---x---x-----x---x----|
|--8----------(8)-----------8----3---1---5----12--10----|
|-------------------------------------------------------|

Gtr.2
|-------------------------------------------------------|
|-------------------------------------------------------|
|--7----------(7)-----------7----9--10---3----10---9----|
|--x------------------------x----x---x---x-----x---x----|
|--5----------(5)-----------5----7---8---1-----8---7----|
|-------------------------------------------------------|

Guitar1
|--------------------------------------------------------------------------|
|--------------------13----------------------------------------------------|
|----14----15-----15----15----12-------14----15----------------------------|
|-------12----12-----------10-------------12----12----15-14----17-15-------|
|--------------------------------------------------13-------13-------13-17-|
|--------------------------------------------------------------------------|

|--------------------------------------------------------------------------|
|----------------------13--------------------------------------------------|
|-----14----15------15----15----12-----14----15----------------------------|
|--------12----12------------10-----------12----12----15-14----17-15-------|
|--------------------------------------------------13-------13-------13-17-|
|--------------------------------------------------------------------------|

Gtr.2
|-------------------------------------------|
|-------------------------------------------|
|-------------------------------------------|
|-------------------------------------------|
|--0-0-0-0-------------0-0-0-0--------------|
|--0-0-0-0-------------0-0-0-0--------------|

|--------------------------------------------|
|--------------------------------------------|
|--------------------------------------------|
|--------------------------------------------|
|-0-0-0-0--------------0--0--------0--0------|
|-0-0-0-0--------------0--0--------0--0------|

Gtr.1
|-------------------------------------------|
|-------------------------------------------|
|-7---------------9--------------10---------|
|-x---------------x---------------x---------|
|-5---------------7---------------8---------|
|-------------------------------------------|
Gtr.2
|-------------------------------------------|
|-------------------------------------------|
|-3---------------5---------------7---------|
|-x---------------x---------------x---------|
|-1---------------3---------------5---------|
|-------------------------------------------|

---------------------------------------------------|
---------------------------------------------------|
-12-12-12-12-12-12-12-12--14-14-14-14-14-14-14-14--|
--x--x--x--x--x--x--x--x---x--x--x--x--x--x--x--x--|
-10-10-10-10-10-10-10-10--12-12-12-12-12-12-12-12--|
---------------------------------------------------|

---------------------------------------------------|
---------------------------------------------------|
--9--9--9--9--9--9--9--9--11-11-11-11-11-11-11-11--|
--x--x--x--x--x--x--x--x---x--x--x--x--x--x--x--x--|
--7--7--7--7--7--7--7--7---9--9--9--9--9--9--9--9--|
---------------------------------------------------|

Guitar Solo
|----------------|-----------------|-------------|
|----------------|-----------------|-------------|
|-5pb7r5---------|-5pb7r5----------|--5-------5--|
|--------7-------|--------7--------|------7------|
|----------8-----|----------7--8---|-------------|
|----------------|-----------------|-------------|

|------------------------------------------------|
|-------------------10----------------13---------|
|------------------------------------------------|
|------------------------------------------------|
|------------------------------------------------|
|------------------------------------------------|

|-----------12----12b13---(12)--12r-12-------------------------------------|
|-13b15-13r----15---------------------15-----------------------------------|
|----------------------------------------14--------------------------------|
|------------------------------------------14-15-15b17--r15-14-12-15-14-17-|
|--------------------------------------------------------------------------|
|--------------------------------------------------------------------------|

|-------17-15-13------------------------------------|
|----------------17-15-13---------------------------|
|-------------------------16-14-13------------------|
|-15-19----------------------------16-14-13-15-19---|
|---------------------------------------------------|
|---------------------------------------------------|

|------------------------------------------|
|------------------------------------------|
|------------------------------------------|
|------------------------------------------|
|------------------------------------------|
|-0-0-0-0-0-0-0-0-1-0-0-0-0-0-0-0-0-0-1-0--|

|----------------------------------------------|
|----------------------------------------------|
|--------------------------------------------5-|
|------------------------------8-----------8---|
|----------------------5---6-----6-5---6-------|
|-0-0-0-0-0-0-0-0-1-0--------------------------|

End On
|----------|
|----------|
|----------|
|-0--------|
|-0--------|
|-0--------|
Suggest correction
What's this?
You can suggest a correction to this tab. Community and Mods will review your correction and vote to approve or reject it.
comments
print report bad tab
8 comments total. Showing first comments.
0 reply
ENDOFHEARTACHE 56 wrote on February 13 2006, 07:45 pm

SHWEET

0 reply
nehpets5555 340 wrote on February 14 2006, 05:09 am

nice

+1 reply
nehpets5555 340 wrote on February 14 2006, 05:10 am

u should state that the tuning is drop d ..for people who dont usually play any trivium

guest
You may want to rate the tab now too:
select rating
Please do not post tabs as comments. Select "correction" instead!