Oops, an error
Loading. Please wait.

Requiem Tab

version 1
version 1

Whole song

29,989 views 51 this week
26 commentsread comments
1 2 3 4 5
excellent!
x 19
add to favorites
launch autoscroll
font size
0
reset
how to read this tab
guitar tuner
Autoscroll
slow
fast
+/-
esc
set tempo
stop
Help us to improve Ultimate-Guitar.com Take our survey!
×
Author
Difficulty
intermediate
Hey guys no one has tried to tab the solo before me and im pretty sure a few parts arent
exact but hopefully this will encourage others to update it and make it better. This is
also my first tab. I only tabbed the first part of the solo.

Trivium, Requiem - Cd - Ember to Inferno


Intro Guitar 1: (Part 1)
e|---------------------------------------------------|
B|---------------------------------------------------|
G|---------------------------------------------------|
D|--5---5--4b5r4--5---5--4b5b4------------5-4-2-0----|
A|--3-3-----------3-3-----------7~-------------------|
E|----------------------------------0-3-2------------|
PM    .             .                        
e|-----------------------------------------------------------------|
B|-----------------------------------------------------------------|
G|-----------------------------------------------------------------|
D|--5---5--4b5r4--5---5--4b5b4------------5555-44444-2222-0000-----|
A|--3-3-----------3-3-----------7~---------------------------------|
E|----------------------------------0-3-2--------------------------|
PM    .             .                        

Intro Guitar 2: (Part 1)
e|------------|------------|--------------------|
B|------------|------------|--------------------|
G|------------|------------|--------------------|
D|-5--5-------|-5--5-------|5555-4444-2222-0000-|
A|-3--3-----2-|-3--3-----2-|--------------------|
E|----------0-|----------0-|--------------------|

Intro Both Guitars: (Part 2)

e|-----------------------------------------------------------------|
B|-----------------------------------------------------------------|
G|-----------------------------------------------------------------|
D|--5---5--4b5r4--5---5--4b5b4-------------5555-44444-2222-0000----|
A|--3-3-----------3-3-----------7~---------------------------------|
E|----------------------------------0-3-2--------------------------|
PM    .             .                        

Verse Both Guitars:
e|---------------------------------------------|
B|---------------------------------------------|
G|---------------------------------------------|
D|-5-5-5-5-5-5-5-5-5/7-------------------------|
A|-3-3-3-3-3-3-3-3-3/5-2-2-2-2-2-2-2-2-2-2-2-2-|
E|---------------------0-0-0-0-0-0-0-0-0-0-0-0-|
PM   . .   . .   .  .    . .   . .   . . 

PreChorus Both Guitars: (Part 1)
e|-----------------------------------------------------|
B|-----------------------------------------------------|
G|-----------------------------------------------------|
D|-----------------12\11/12----------------------------|
A|-5-2-------------10\9-/10-------5-2------------------|
E|-3p0-00000000000----------3p2h3-3p0-00000000000—-----|
PM     ...........                    ...........

PreChorus (Part 2)
e|-------------------------------------------------|
B|-------------------------------------------------|
G|-------------------------------------------------|
D|-5---5---4---7---5---4-----9---10---9---7--------|  
A|---33--33--33--33--33----77--77---77--77-7-10----|
E|-------------------------------------------------|
PM   ..  ..  ..  ..  ..    ..  ..    .. .. .

PreChrorus (Part 3)
e|----------|-------------------------|
B|----------|-------------------------|
G|----------|-------------------------|
D|-5----7---|-5----7-9----------------|
A|-3----5-2-|-3----5-7-----9-----10---|
E|--------0-|------------00--0-00--000|
PM                       ..  . ..  ...

Chorus Both Guitars:
e|----0-----------------------------------------------|
B|----0-----------------------------------------------|
G|----------0---0-------------------------------------|
D|-2-------4---4--4---5---5---4---7---5---------------|  
A|-2------5---5--5----3—----33--33--33--33--5--5—-5---|
E|-0----------------------------------------3--2—-3---|
PM                          ..  ..  ..  ..  

Bridge Guitar 1: (Part 1)
e|-------------------|
B|-------------------|
G|-------------------|
D|------------5----7-|
A|-2-----22---3----5-|
E|-0-----00----------|

Bridge Guitar 2:  (Part 1)
e|-------------------------------------------------------------|
B|-------------------------------------------------------------|
G|-------------------------------------------------------------|
D|-------------------------------------------------------------|
A|----10----9----10----9---7-----10----9----12---10---9---9h10-|
E|-00----00---00----00--0-----00----00---00----0----0---0------|
PM ..    ..   ..    ..  .     ..    ..   ..     .    .   .

e|--------------------------------------------|
B|--------------------------------------------|
G|--------------------------------------------|
D|----------------------------555555-777777---|
A|----10----9----10----9---7--333333-555555---|
E|-00----00---00----00--0---------------------|
PM ..    ..   ..    ..  .    

Bridge Both Guitars:  (Part 2)
e|-------------------------------------------------------------|
B|-------------------------------------------------------------|
G|-------------------------------------------------------------|
D|-------------------------------------------------------------|
A|----10----9----10----9---7-----10----9----12---10---9---9h10-|
E|-00----00---00----00--0-----00----00---00----0----0---0------|
PM ..    ..   ..    ..  .     ..    ..   ..    .   .   .

e|--------------------------------------------|
B|--------------------------------------------|
G|--------------------------------------------|
D|----------------------------555555-777777---|
A|----10----9----10----9---7--333333-555555---|
E|-00----00---00----00--00--------------------|
PM ..    ..   ..    ..  ..    

Bridge Guitar 1: (second time you do it)(Part 3)
e|-------------------------------------------------------------------|
B|-------------------------------------------------------------------|
G|-------------------------------------------------------------------|
D|-------------------------------------------------------------------|
A|----14----12----14----12---10-----14----12----15---14---12---12h14-|
E|-00----00----00----00----00-----00----00----00----0----0---0-------|
PM ..    ..    ..    ..    ..     ..    ..    ..    .    .   .

e|------------------------------------------------|
B|------------------------------------------------|
G|------------------------------------------------|
D|-------------------------------555555-777777----|
A|----14----12----14----12---10--333333-555555----|
E|-00----00---00----00----00----------------------|
PM ..    ..   ..    ..    ..    

Bridge Guitar 2:  (Part 3)
e|-------------------------------------------------------------|
B|-------------------------------------------------------------|
G|-------------------------------------------------------------|
D|-------------------------------------------------------------|
A|----10----9----10----9---7-----10----9----12---10---9---9h10-|
E|-00----00---00----00--0-----00----00---00----0----0---0------|
PM ..    ..   ..    ..  .     ..    ..   ..    .   .   .

e|--------------------------------------------|
B|--------------------------------------------|
G|--------------------------------------------|
D|----------------------------555555-777777---|
A|----10----9----10----9---7--333333-555555---|
E|-00----00---00----00--00--------------------|
PM ..    ..   ..    ..  ..    
  
Solo:  (Part 1) (last part of the first solo i cant tab)
e|--------------------------------------------------------12h15p12------|
B|-3h-5~-----------15b(17)--15b(17)15b(17)15b(17)15b(16)-----------15p12|
G|--------14p12h14------------------------------------------------------|
D|----------------------------------------------------------------------|
A|----------------------------------------------------------------------|
E|----------------------------------------------------------------------|

e|-15p12-------15-15b(17)---15-14-12------------17b(19)-17-15-17-15-----|
B|-------15p12-----------------------15-15b(17)---------------------17--|
G|----------------------------------------------------------------------|
D|----------------------------------------------------------------------|
A|----------------------------------------------------------------------|
E|----------------------------------------------------------------------|

e|---------17-17b(19)-17-15-17-15-14-15-14---------------------|
B|-----------------------------------------15-15/17~-----------|
G|-14\12-------------------------------------------------------|
D|-------------------------------------------------------------|
A|-------------------------------------------------------------|
E|-------------------------------------------------------------|

I got completeley stumped at the very last part of solo 1 and as
for solo 2 im still trying to tab it and will put it in soon.

Backing Solo Guitar 2:
e|-------------|----------------|------------|---|
B|-------------|----------------|------------|---|
G|-------------|----------------|------------|---|
D|-------5---7-|----------5-7---|-------5-7--|---|
A|-2-----3---5-|-2--2222--3-5---|-2-----3-5--|-2-|
E|-0-----------|-0--0000--------|-0----------|-0-|
PM                  ....

Post Solo Both Guitars:
e|---------------|---------------|-------------------|
B|---------------|---------------|-------------------|
G|---------------|---------------|-------------------|
D|---------------|---------------|-------------------|
A|-2~~--5~~--7~~-|-2~~-5~~-7~~---|-222222222222222-2-|
E|-0~~--3~~--5~~-|-0~~-3~~-5~~---|-000000000000000-0-|
PM                                 ...............

Trem Picking Both Guitars:
e|-------------------------------|
B|-------------------------------|
G|-------------------------------|
D|-------------10-9----5-4---7-5-|
A|---7-9-10----------------------|
E|-0---------8-------3-----5-----|




b=Bend
()=number to bend to
Pm=palm mute
.=note to palm mute
h=hammer on
p=pull off
~=vibrato
\=slide down
/=slide up


Intro Part 1 x1
Intro Part 2 x2
Verse x4
Intro Part 2 x2
Verse x2
Prechorus Part 1 x2
Prechorus Part 2 x2
Prechorus Part 3 X1
Chorus x2
Verse x2
Prechorus Part 1 x2
Prechorus Part 2 x2
Prechorus Part 3 x1
Chorus x2
Bridge Part 1 x1
Bridge Part 2 x1
Bridge Part 3 x1
Solo and Backing Guitar x1
Post Solo x1
Tremolo Picking Part x4
Verse x2
Prechorus Part 1 x2
Prechorus Part 2 x2
Prechorus Part 3 x1
Chorus x2
Intro Part 1 x1
Suggest correction
comments
print report bad tab
26 comments total. Showing first comments.
0 reply
ENDOFHEARTACHE 10 wrote on October 29 2005, 09:17 pm

good job man

0 reply
caljif 10 wrote on October 30 2005, 09:57 am

wats r stand 4

0 reply
dagget 167 wrote on October 30 2005, 12:48 pm

it means release sry i didnt put it in

guest
You may want to rate the tab now too:
select rating
Wanna post a correction for this tab? Suggest correction