Oops, an error
Loading. Please wait.

Rising Tab

version 1
version 1

Solo

Whole song

Interactive

1,261 views 1 this week
2 commentsread comments
1 2 3 4 5
x 3
add to favorites
launch autoscroll
font size
0
reset
how to read this tab
guitar tuner
Autoscroll
slow
fast
+/-
esc
set tempo
stop
Help us to improve Ultimate-Guitar.com Take our survey!
×
Author
this is an alright song..thought i would kill some time and work on my ear 

this is one of the intro riffs
|----------------------------------|
|---6----6----5--6-----------------|
|-x-5--x-5--x-5--5------10-----12--|
|-------------------/10----/10-----|
|----------------------------------|
|----------------------------------|

intro solo
|-15(17)--15(17)---15(17)r--13/15\13---15-13-----13-15(17)r--|
|-----------------------------------13------13-15------------|
|------------------------------------------------------------|
|------------------------------------------------------------|
|------------------------------------------------------------|
|------------------------------------------------------------|

|-------------------------------------|
|-------------------------------------|
|-------10-12-12(14)-12-10------------|
|-10-12-------------------12-10-12\\--|
|-------------------------------------|
|-------------------------------------|


second solo
|----------------------------|--------------13-15(17)15-|
|-------13(15)~~~~~--12--10--|-------13(15)-------------|
|-10-12--------------12--10--|-10-12--------------------|
|----------------------------|--------------------------|
|----------------------------|--------------------------|
|----------------------------|--------------------------|

|-13--12h13p12--12-13-15-17-18-20-22-24-24(26)--|
|-------------15--------------------------------|
|-----------------------------------------------|
|-----------------------------------------------|
|-----------------------------------------------|
|-----------------------------------------------|

sorry dont have the big solo
Suggest correction
Give kudos to tab author, rate the tab!
1 2 3 4 5
comments
print report bad tab
2 comments total.
0 reply
Rynoceros 30 Jul 14, 2007 12:06 AM

need to work on your ear... sorry bud

0 reply
gokuace2000 10 Mar 03, 2008 08:07 PM

yeah uh dude....get a better set of ear drums and work on your tabs. wtf kind of shit was that seriously

guest
You may want to rate the tab now too:
select rating
Wanna post a correction for this tab? Suggest correction