Oops, an error
Loading. Please wait.

Shattering The Skies Above bass

version 2
version 2

Whole song

by Trivium
2,192 views 1 this week
no commentswrite comment
1 2 3 4 5
2 more votes to show rating
add to favorites
×
Save as Personal and add changes to this tab that will be seen only by you. Learn more ›
×
You can save this tab as Personal to edit and correct it or add notes. All changes will be seen only by you. Learn more »
launch autoscroll
font size
0
reset
guitar tuner
backing track
0:00
0:00
edit
Autoscroll
slow
fast
+/-
esc
set tempo
stop
Tabbed By : James mckernan
e-mail:flatballer666@hotmail.com

intro
G||-----------------|---------------------|
D||-----------------|--------5h7p5--------|
A||--------5-----4--|--------------8-7----|
D||--0-3-7---0-3----|--0-3-7--------------|


Verse 1

G||---------------------|-----------------|---------------------|
D||---------------------|-----------------|--------5h7p5--------|
A||-4BU(5)-------4BU(5)-|--------5-----4--|--------------8-7----|
D||--------0-0-0--------|--0-3-7---0-3----|--0-3-7--------------|

Verse 1 part 2

G||---------------|---------------|
D||---------------|---------------|
A||-7~~-------7~~-|-------7-----6-|
D||-----0-0-0-----|-0-5-8---0-5---|

        

G||---------------|------------------|
D||---------------|-------7h8p7------|
A||-7~~-------7~~-|-------------10-8-|
D||-----0-0-0-----|-0-5-8------------|

.
Verse 2

G||---------------------------|----------------------------------------|
D||---------------------------|----------------------------------------|
A||-1111---------1111---------|---------------------000-444-777--------|
D||------0-0-0---------0-0-0--|--333-222-555-333333--------------------|

After this go back to verse 1 part 2

Death will complete me part

G||------------------------------------|
D||------------------------------------|
A||------------------------------------|
D||---0-0-0---0-0-0---0-0-0---0-0-0----|



verse 3/Solos
G||----------------------------------|
D||-------------------------------5--|
A||-5-----8-----5-----8-----7--------|
D||---0-0---0-0---0-0---0-0---8-5----|


G||--------------------------------------------|
D||------------------5h7p5---------------------|
A||--5-----8-----5---------8-7--5h7p5----------|
D||----0-0---0-0---0------------------8-7------|

Go back to verse 2 riff
After that, drum fill 


G||--------------------------------------------------------------------|
D||--------------------------------------------------------------------|
A||-------------------------------4444-4444-4444-0000------------------|
D||-0000-0000-0000-0000-0000-0000---------------------3333-2222--------|


MKH solo bass part
G||----------------------------------------------------|
D||----------------------------------|-----------------|
A||-5-----7-----8-------12-10-12-13--|--5--------------|
D||----------------------------------|-----10--7-------|

G||-----------------------------------------------------|
D||-----------------------------------------------------|
A||-----------------1~-3~-5~---8-7--8-10----------------|
D||--8--7--3---0~--------------------------8--7--3------|



verse 6/outro
G||---------------------------|----------------------------------------|
D||---------------------------|----------------------------------------|
A||-1111---------1111---------|---------------------000-444-777--------|
D||------0-0-0---------0-0-0--|--333-222-555-333333--------------------|



http://www.youtube.com/watch?v=qZMTETqrl3k for guidance ,theres my video ,best of luck
Suggest correction
Creating personal tab
Creating personal tab
You can edit any tab online and save it as your Personal.

You can edit, replace or remove any tab part or add personal notes – all changes will be seen only by you.

Personal tabs can be accessed anytime from any device, even offline.
Learn more »
Give kudos to tab author, rate the tab!
1 2 3 4 5
comments
print report bad tab
guest
You may want to rate the tab now too:
select rating
Wanna post a correction for this tab? Suggest correction