Oops, an error
Loading. Please wait.
We have an official Silence In The Snow tab made by UG professional guitarists. Check out the tab »
×
by Trivium
6,808 views 75 this week
no commentswrite comment
1 2 3 4 5
x 5
add to favorites
×
Save as Personal and add changes to this tab that will be seen only by you. Learn more ›
×
You can save this tab as Personal to edit and correct it or add notes. All changes will be seen only by you. Learn more »
launch autoscroll
font size
0
reset
how to read this tab
guitar tuner
edit
Autoscroll
slow
fast
+/-
esc
set tempo
stop
Guitar 1 - Matt Heafy
Guitar 2 - Corey Beauliu


[Intro]

Guitar 1
Eb|------------------------------------------------------------------------------|
Bb|------------------------------------------------------------------------------|
Gb|------------------------------------------------------------------------------|
Db|------------------------------------------------------------------------------|
Ab|------------5-----------------4-------------------5-------------------4--8--9-|
Eb|-2----------3----------5------2--------2----------3-----------5-------2--6--7-|
Bb|-0---------------------3---------------0----------------------3---------------|


Guitar 2
Eb|--------------------------------------------------------------------------------|
Bb|-------------------------------------------------------------------------11--12-|
Gb|------------12------------------------------------12-----------------11---------|
Db|-9--11--12------11--12--11--7--12--11--9--11--12------11--12--11--7-------------|
Ab|--------------------------------------------------------------------------------|
Eb|--------------------------------------------------------------------------------|
Bb|--------------------------------------------------------------------------------|


[Main Riff]

Both Guitars
Eb|----------------------------------------------------------------------------------------|
Bb|----------------------------------------------------------------------------------------|
Gb|----------------------------------------------------------------------------------------|
Db|----------------------------------------------------------------------------------------|
Ab|--------------------------------------------------------------------------------5--7--9-|
Eb|-2-------------5--4--2----------2-3-2-0-2-0------2-------------5--4--2----------3--5--7-|
Bb|-0--000-000-00-3--2--0--000-00--------------3-2--0--000-000-00-3--2--0--000-00----------|


[Verse]

Both Guitars
Eb|--------------------------------------------------|
Bb|--------------------------------------------------|
Gb|--------------------------------------------------|
Db|--------------------------------------------------|
Ab|------5-------7-----------------------------------|
Eb|------3-------5---4-------------7--6--4-----------|
Bb|-0-0-----0-0------2--222-222-22-5--4--2--222-22---|

Eb|---------------------------------------------------------|
Bb|---------------------------------------------------------|
Gb|---------------------------------------------------------|
Db|---------------------------------------------------------|
Ab|----------------------------------------------7-------9--|
Eb|-4-5-4-2-4-2------4-------------7--6--4-------5-------7--|
Bb|------------5-4--2--222-222-22-5--4--2--2-2-----2-2------|


[Pre Chorus]

Eb|--------------------------------------------------------------------------------------------|
Bb|--------------------------------------------------------------------------------------------|
Gb|--------------------------------------------------------------------------------------------|
Db|--------------------------------------------------------------------------------------------|
Ab|--------------------------------------------------------------------------------------------|
Eb|----7-5-7----------10-9-----7-5-7-------10-7------7-5-7----------10-9-----7-5-7-------10-12-|
Bb|-0---------0-0--0--------0---------0-0--8--5---0---------0-0--0--------0---------0-0--8--10-|


[Chorus]

Guitar 1
Eb|-------------------------------------------------------------------------|
Bb|-------------------------------------------------------------------------|
Gb|-------------------------------------------------------------------------|
Db|-------------------------------------------------------------------------|
Ab|-------------------------------------------------------------------------|
Eb|-------------------------------------------------------------------------|
Bb|-2-2-2-2-2-2-2-2-10-10-10-10-10-10-10-10-7-7-7-7-7-7-7-7-9-9-9-9-9-9-9-9-|

Guitar 2
Eb|--------------------------------------------------------------------------|
Bb|--------------------------------------------------------------------------|
Gb|-------------14-------------------------------------14--------------------|
Db|-11--13--14------13--14--13--9--14--13--11--13--14------13--14--13--9--14-|
Ab|--------------------------------------------------------------------------|
Eb|--------------------------------------------------------------------------|
Bb|--------------------------------------------------------------------------|


[Solo 1]

Guitar 1 (Main Riff)

Guitar 2
Eb|----------------------------------------------------------------------------------|
Bb|---------------------------------------------------------12--14--14b--------------|
Gb|-----------------------------------------------------11---------------14--12--14b-|
Db|--------------------------------11h12p11------11-12-------------------------------|
Ab|----------------------7--9--10------------14--------------------------------------|
Eb|-7--9h10p9--7--9--10--------------------------------------------------------------|
Bb|----------------------------------------------------------------------------------|

Eb|--------------------------------------------|
Bb|-20-0-19-0-17-0-15-0-17-0-15-0-14-0-10-0-12-|
Gb|--------------------------------------------|
Db|--------------------------------------------|
Ab|--------------------------------------------|
Eb|--------------------------------------------|
Bb|--------------------------------------------|


[Verse]

Both Guitars
Eb|--------------------------------------------------|
Bb|--------------------------------------------------|
Gb|--------------------------------------------------|
Db|--------------------------------------------------|
Ab|------5-------7-----------------------------------|
Eb|------3-------5---4-------------7--6--4-----------|
Bb|-0-0-----0-0------2--222-222-22-5--4--2--222-22---|

Eb|---------------------------------------------------------|
Bb|---------------------------------------------------------|
Gb|---------------------------------------------------------|
Db|---------------------------------------------------------|
Ab|----------------------------------------------7-------9--|
Eb|-4-5-4-2-4-2------4-------------7--6--4-------5-------7--|
Bb|------------5-4--2--222-222-22-5--4--2--2-2-----2-2------|


[Pre Chorus]

Eb|--------------------------------------------------------------------------------------------|
Bb|--------------------------------------------------------------------------------------------|
Gb|--------------------------------------------------------------------------------------------|
Db|--------------------------------------------------------------------------------------------|
Ab|--------------------------------------------------------------------------------------------|
Eb|----7-5-7----------10-9-----7-5-7-------10-7------7-5-7----------10-9-----7-5-7-------10-12-|
Bb|-0---------0-0--0--------0---------0-0--8--5---0---------0-0--0--------0---------0-0--8--10-|


Harmony
Eb|---------------------------------------------------------------|
Bb|---------------------------------------------------------------|
Gb|---------------------------------------------------------------|
Db|---------------------------------------------------------------|
Ab|---------------------------------------------------------------|
Eb|----10-9-10----------14-12----10-9-10-------10-7------10-9-10--|
Bb|-0-----------0-0--0--------0-----------0-0--8--5---0-----------|

Eb|----------------------------------------|
Bb|----------------------------------------|
Gb|----------------------------------------|
Db|----------------------------------------|
Ab|----------------------------------------|
Eb|----------14-12-----10-9-10-------10-7--|
Bb|--0-0--0---------0-----------0-0--8--10-|


[Chorus]

Guitar 1
Eb|-------------------------------------------------------------------------|
Bb|-------------------------------------------------------------------------|
Gb|-------------------------------------------------------------------------|
Db|-------------------------------------------------------------------------|
Ab|-------------------------------------------------------------------------|
Eb|-------------------------------------------------------------------------|
Bb|-2-2-2-2-2-2-2-2-10-10-10-10-10-10-10-10-7-7-7-7-7-7-7-7-9-9-9-9-9-9-9-9-|

Guitar 2
Eb|--------------------------------------------------------------------------|
Bb|--------------------------------------------------------------------------|
Gb|-------------14-------------------------------------14--------------------|
Db|-11--13--14------13--14--13--9--14--13--11--13--14------13--14--13--9--14-|
Ab|--------------------------------------------------------------------------|
Eb|--------------------------------------------------------------------------|
Bb|--------------------------------------------------------------------------|


[Breakdown]

Both Guitars
Eb|-------------------------------------------------------------|
Bb|-------------------------------------------------------------|
Gb|-------------------------------------------------------------|
Db|-------------------------------------------------------------|
Ab|------------------------5---5-------------------------5---5--|
Eb|-------------------------------------------------------------|
Bb|-2222-2222-22-2222-22-2/3-2/3--2222-2222-22-2222-22-2/3-2/3--|

Eb|-------------------------------------------------------------|
Bb|-------------------------------------------------------------|
Gb|-------------------------------------------------------------|
Db|-------------------------------------------------------------|
Ab|------------------------2---2-------------------------5---5--|
Eb|-------------------------------------------------------------|
Bb|-1111-1111-11-1111-11-1/0-1/0--2222-2222-22-2222-22-2/3-2/3--|


[Pre-solo]

Eb|-------------------------------------------------|
Bb|-------------------------------------------------|
Gb|-------------------------------------------------|
Db|-11-10-9--8--7--6--10-11--11-11-11-11-11-11-11-11|
Ab|-------------------------------------------------|
Eb|-9--8--7--6--5--4--8--9---9--9--9--9--9--9--9--9-|
Bb|-------------------------------------------------|


[Solo]

Guitar 2

Eb|-----------------------------------------------------------------------|
Bb|-----------------------------------------------14-14-14-14-14-14-14-14-|
Gb|-----------------------------------------------------------------------|
Db|-11-10-9--8--7--6--10-11-11-11-11-11-11-11-11--11-11-11-11-11-11-11-11-|
Ab|-----------------------------------------------------------------------|
Eb|-9--8--7--6--5--4--8--9--9--9--9--9--9--9--9---------------------------|
Bb|-----------------------------------------------------------------------|


Guitar 1
Eb|-9---9--11--12--11-----11--12--14--12------12--14--16--14---16-14--11-12--9-------------------------|
Bb|---9----------------12-----------------12------------------------------------12--9----9-------------|
Gb|------------------------------------------------------------------------------------9----9----------|
Db|--------------------------------------------------------------------------------------------11-9-11-|
Ab|----------------------------------------------------------------------------------------------------|
Eb|----------------------------------------------------------------------------------------------------|
Bb|----------------------------------------------------------------------------------------------------|

(not 100% on this part)
Eb|-9----9-12-9-----9---------------------------------------|
Bb|-12b----------12----12-9-12-9-----9----------------------|
Gb|------------------------------11----11-9-11-9----9-------|
Db|----------------------------------------------11----11-9-|
Ab|---------------------------------------------------------|
Eb|---------------------------------------------------------|
Bb|---------------------------------------------------------|


[Chorus]

Guitar 1
Eb|-------------------------------------------------------------------------|
Bb|-------------------------------------------------------------------------|
Gb|-------------------------------------------------------------------------|
Db|-------------------------------------------------------------------------|
Ab|-------------------------------------------------------------------------|
Eb|-------------------------------------------------------------------------|
Bb|--10-10-10-10-10-10-10-10-7-7-7-7-7-7-7-7-9-9-9-9-9-9-9-9----------------|

Guitar 2
Eb|--------------------------------------------------------------|
Bb|--------------------------------------------------------------|
Gb|-14-------------------------------------14--------------------|
Db|-----13--14--13--9--14--13--11--13--14------13--14--13--9--14-|
Ab|--------------------------------------------------------------|
Eb|--------------------------------------------------------------|
Bb|--------------------------------------------------------------|


Guitar 1
Eb|-------------------------------------------------------------------------|
Bb|-------------------------------------------------------------------------|
Gb|-------------------------------------------------------------------------|
Db|-------------------------------------------------------------------------|
Ab|-------------------------------------------------------------------------|
Eb|-------------------------------------------------------------------------|
Bb|-2-2-2-2-2-2-2-2-10-10-10-10-10-10-10-10-7-7-7-7-7-7-7-7-9-9-9-9-9-9-9-9-|

Guitar 2
Eb|--------------------------------------------------------------------------|
Bb|--------------------------------------------------------------------------|
Gb|-------------14-------------------------------------14--------------------|
Db|-11--13--14------13--14--13--9--14--13--11--13--14------13--14--13--9--14-|
Ab|--------------------------------------------------------------------------|
Eb|--------------------------------------------------------------------------|
Bb|--------------------------------------------------------------------------|


[Outro]

Guitar 1
Eb|-----------------------------------------|
Bb|-----------------------------------------|
Gb|-----------------------------------------|
Db|-----------------------------------------|
Ab|-----------7------7--4------4--5------5--|
Eb|-4------4--5-5555-5--2-2222-2--3-3333-3--|
Bb|-2-2222-2--------------------------------|

Guitar 2
Eb|-16p12---16p12---16p12---16p12-----12p9---12p9---12p9---12p9--|
Bb|------14------14------14-------14------10-----10------10------|
Gb|--------------------------------------------------------------|
Db|--------------------------------------------------------------|
Ab|--------------------------------------------------------------|
Eb|--------------------------------------------------------------|
Bb|--------------------------------------------------------------|

Eb|---9p5--9p5--9p5--9p5-----11p7---11p7---11p7---|
Bb|10----7----7----7----7---------9------9------9-|
Gb|-----------------------------------------------|
Db|-----------------------------------------------|
Ab|-----------------------------------------------|
Eb|-----------------------------------------------|
Bb|-----------------------------------------------|



************************************

| h  Hammer-on
| p  Pull-off
| b  Bend
| /  Slide up

************************************

            
            
Suggest correction
Creating personal tab
Creating personal tab
You can edit any tab online and save it as your Personal.

You can edit, replace or remove any tab part or add personal notes – all changes will be seen only by you.

Personal tabs can be accessed anytime from any device, even offline.
Learn more »
comments
print report bad tab
guest
Wanna post a correction for this tab? Suggest correction