Oops, an error
Loading. Please wait.

The Crusade bass

version 2
version 2
by Trivium
7,117 views 9 this week
no commentswrite comment
1 2 3 4 5
x 3
add to favorites
×
Save as Personal and add changes to this tab that will be seen only by you. Learn more ›
×
You can save this tab as Personal to edit and correct it or add notes. All changes will be seen only by you. Learn more »
launch autoscroll
font size
0
reset
guitar tuner
edit
Autoscroll
slow
fast
+/-
esc
set tempo
stop
Author
the crusade          instrumental               (NOTE ON 5 STRING)

riff 1          x 2
|---------------------------------------------------------------------|
|---------------------------------------------------------------------|
|---------------------------------------------------------------------|
|-0-----------------------0-----------------------4--0----------------|
|---------------------------------------------------------------------|
                                                  ~~~
|-------------------------------------|
|-------------------------------------|
|-------------------------------------|
|-0-------------------1--4--5--7--8---|
|-------------------------------------|

|-----------------------------------------------------------------------------|
|-----------------------------------------------------------------------------|
|-----------------------------------------------------------------------------|
|-8-0-0-8-0-0-8-0-7-0-0-7-0-0-7-0-4-0-5-0-7-0-4-0-4-5-0-0-5-0-0-4-0-0-4-1-4-5-|
|-----------------------------------------------------------------------------|

|-----------------------------------------------------------------------------|
|-----------------------------------------------------------------------------|
|-----------------------------------------------------------------------------|
|-8-0-0-8-0-0-8-0-7-0-0-7-0-0-7-0-4-0-5-0-7-0-4-0-4-5-0-0-5-0-0-4-0-0-4-1-4-5-|
|-----------------------------------------------------------------------------|
riff 2
|---------------------------------------------------------|
|---------------------------------------------------------|
|---------------------------------------------------------|
|-1-1-1-1-1-1-1-1-4-4-4-4-4-4-4-4-8-7-5-8-7-5-7-5-4-7-5-4-|
|---------------------------------------------------------|

|-------------------------------------|
|-------------------------------------|
|-------------------------------------|
|-1-1-1-1-1-1-1-1-4-4-4-4-4-4-4-4-0---|
|-------------------------------------|
riff 3
|---5-----5---5-----5--------4-----4---4-----4-----|
|-7---7-9---7---7-9---9-7--6---6-7---6---6-7---7-6-|
|--------------------------------------------------|
|--------------------------------------------------|
|--------------------------------------------------|

|---2-----2---2-----2------------------------------|
|-3---3-5---3---3-5---5-3----2-3-2-0-2-0-------0---|
|----------------------------------------3-2-3-----|
|--------------------------------------------------|
|--------------------------------------------------|
riff 4
|---------------------------------------------------------|
|---------------------------------------------------------|
|---------------------------------------------------------|
|-5-5-5-5-5-5-5-4-4-4-4-4-4-4-1-1-1-1-1-1-1-0-0-0-0-0-0-0-|
|---------------------------------------------------------|
riff 5
|-2------------------------------------2--------------------------------------|
|---3-2-3-2------------------------------2-0-2-0------------------------------|
|-----------3------------------------------------0----------------------------|
|-----------------------------------------------------------------------------|
|--------------5-5-5-5-5-5-5-5-5-5-5-5---------------4-----0-----1-----3------|
riff 6
|-----------------------------------------------------------|
|-----------------------------------------------------------|
|-------------------------------3h5-5-5-5-5-5-5-5-5-5-5-5-5-|
|-3h5-5-5-5-5-5-5-5-5-5-5-5-5-5-----------------------------|
|-----------------------------------------------------------|

|--------------------------------------------------------------------------|
|--------------------------------------------------------------------------|
|-8-8-8-8-8-8-8-5-5-5-5-5-5-5-5-5------------------------------------------|
|---------------------------------8-8-8-8-8-8-8-8-8-8-7-7---5--7--8--------|
|--------------------------------------------------------------------------|

|-----------------------------------|
|-----------------------------------|
|--5-5-5-5-7s8-8-7-7----------------|
|---------------------8-8-8-8-7-7-7-|
|-----------------------------------|
riff 7                                  
|---------------------------------------------------------------------|
|---------------------------------------------------------------------|
|---------------------------------------------------------------------|
|-7-7-7-7-7-7-7-7-7-7-7-7-7-7-7-7-5-5-5-5-5-5-5-5-5-5-5-5-5-5-5-5-5-5-|
|---------------------------------------------------------------------|

|---------------------------------|
|---------------------------------|
|---------------------------------|
|---------------------------------|
|-0-0-0-0-0-0-0-0-0-0-0-0-0-0-0-0-|
riff 8
|-----------------------------------------------------------------|
|-----------------------------------------------------------------|
|-----------------------------------------------------------------|
|-----------------------------------------------------------------|
|-0-0-0-0-0-0-0-0-2-2-2-2-2-2-2-2-3-3-3-3-3-3-3-3-5-5-5-5-5-5-5-5-|

|-----------------------------------------------------------------|
|-----------------------------------------------------------------|
|---------------------------------1-1-1-1-1-1-1-1-2-2-2-2-2-2-2-2-|
|-2-2-2-2-2-2-2-2-3-3-3-3-3-3-3-3---------------------------------|
|-----------------------------------------------------------------|

|-----------------------------------------------------------------|
|-------------------------------------------------2-2-2-2-2-2-2-2-|
|-2-2-2-2-2-2-2-2-4-4-4-4-4-4-4-4-5-5-5-5-5-5-5-5-----------------|
|-----------------------------------------------------------------|
|-----------------------------------------------------------------|

|-----------------------------------------------------------------|
|-4-4-4-4-4-4-4-4-5-5-5-5-5-5-5-5-8-8-8-8-8-8-8-8-9-9-9-9-9-9-9-9-|
|-----------------------------------------------------------------|
|-----------------------------------------------------------------|
|-----------------------------------------------------------------|

|-----------------|
|-9-9-9-9-9-9-9-9-|
|-----------------|
|-----------------|
|-----------------|
riff 9
|-------------------------------------------------------------------|
|-------------------------------------------------------------------|
|-------------------------------------------------------------------|
|-5-5-5-5-5-5-5-5-5-5-5-5-5-5-5-5-5-5-5-5-5-5-5-5-5-5-5-5-5-5-5-5-5-|
|-------------------------------------------------------------------|

|-------------------------------------------------------------------|
|-------------------------------------------------------------------|
|-------------------------------------------------------------------|
|-------------------------------------------------------------------|
|-0-0-0-0-0-0-0-0-0-0-0-0-0-0-0-0-0-0-0-0-0-0-0-0-0-0-0-0-0-0-0-0-0-|
riff 10
|-------------------|
|-------------------|
|-------------------|
|-5-5-5-------------|
|-------------0-0-0-|
bass solo
|-6---6-9----------------------------------------------|
|---7----------------------16----18-18-14-18-18--------|
|----------5------------------16-----------------------|
|------------------------------------------------------|
|------------------------------------------------------|
           ~~~~~                             ~~~~~~~~
|-------------------------6---9-6-9-13-9-13-16---------|
|-4-7-4-6-7-4-7-4-6-7-4-7---7--------------------------|
|------------------------------------------------------|
|------------------------------------------------------|
|------------------------------------------------------|
                                            ~~~~~~~~
|-13-14-16-16-18-14-16-16--------18-16-14-13-13h14--------------------|
|---------------------------------------------------------------------|
|---------------------------------------------------------------------|
|---------------------------------------------------------------------|
|---------------------------------------------------------------------|
                       ~~~~~~~~~                ~~~~~~~~~~~~
|-9---9-13----13----11-14--------18p14----------14-16p13--------------|
|---9------------14--------------------16----16----------14----14-----|
|-----------------------------------------16----------------14--------|
|---------------------------------------------------------------------|
|---------------------------------------------------------------------|
                       
|-13-16-13-14-13-16-13-14-13-16-13-14-13--11-14-11--------------------|
|---------------------------------------------------------------------|
|---------------------------------------------------------------------|
|---------------------------------------------------------------------|
|---------------------------------------------------------------------|
Riff 11                                                ~~~~~~~~~
|-----------------------------------------|
|-----------------------------------------|
|-----------------------------------------|
|-----------------------------------------|
|-7--7--7-7-7--3-3--0-0--0-0-0--2-2--6-6--|
riff 12
|-----------------------------------------------------|
|-----------------------------------------------------|
|-----------------------------------------------------|
|--------------------------------------1--1-1--4--4-4-|
|-7---7-7-7-7-7-3--3-3--0-0-0--0-0--------------------|
riff 13

|--------------------------------------------------------------------------|
|--------------------------------------------------------------------------|
|-5--5-5-5-5-5-5-5-5-5-5-5-5-5-5-5-5--7--5--1-1-1-1-1-1-1-1-1-1-1-1-1-1-1-3|
|--------------------------------------------------------------------------|
|--------------------------------------------------------------------------|

|--------------------------------------------------------------------------|
|--------------------------------------------------------------------------|
|-5--5-5-5-5-5-5-5-5-5-5-5-5-5-5-5-5--7--5--1-1-1-1-1-1-1-1-1-1-1-1-1-1-1-3|
|--------------------------------------------------------------------------|
|--------------------------------------------------------------------------|
riff 14
|-------------------------------------------------------------------------|
|-------------------------------------------------------------------------|
|-------------------------------------------------------------------------|
|-12-12-12-12-12-12-12-12-12-12-12-12-12-12-12-12-12-12-12-12-12-12-12-12-|
|-------------------------------------------------------------------------|

|-------------------------------------------------------------------------|
|-------------------------------------------------------------------------|
|-------------------------------------------------------------------------|
|-12-12-12-12-12-12-12-12-12-12-12-12-12-12-12-12-12-12-12-12-12-12-12-12-|
|-------------------------------------------------------------------------|

|-------------------------------------------------|
|-------------------------------------------------|
|-------------------------------------------------|
|-12-12-12-12-12-12-12-12-12-12-12-12-12-12-12-12-|
|-------------------------------------------------|
riff 15
|-------------------------------------------------------------------------|
|-------------------------------------------------------------------------|
|-------------------------------------------------------------------------|
|-0-0-0-0-0-0-0-0-0-0-0-0-0-0-0-0-0-0-0-0-0-0-0-0-0-0-0-0-0-0-0-0-0-0-0-0-|
|-------------------------------------------------------------------------|

Order
riff 1  x1       riff 7  x1      
riff 2  x2       riff 8  x1 
riff 1  x1       riff 9  x2
riff 2  x2       riff 10  x1
riff 3  x3       bass solo
riff 4  x3       riff 11  x4
riff 5  x1       riff 12  x5
riff 6  x1       riff 13  x6
riff 3  x4       riff 14  x1
riff 4  x1       riff 15  x2   
riff 5  x1       riff 8   x1
riff 6  x1       riff 9  repeat while it fades out

            
            
Suggest correction
Creating personal tab
Creating personal tab
You can edit any tab online and save it as your Personal.

You can edit, replace or remove any tab part or add personal notes – all changes will be seen only by you.

Personal tabs can be accessed anytime from any device, even offline.
Learn more »
Give kudos to tab author, rate the tab!
1 2 3 4 5
comments
print report bad tab
guest
You may want to rate the tab now too:
select rating
Wanna post a correction for this tab? Suggest correction