Oops, an error
Loading. Please wait.

This World Cant Tear Us Apart bass

version 1
version 1

Whole song

Interactive

by Trivium
2,977 views 1 this week
5 commentsread comments
1 2 3 4 5
x 3
add to favorites
×
Save as Personal and add changes to this tab that will be seen only by you. Learn more ›
×
You can save this tab as Personal to edit and correct it or add notes. All changes will be seen only by you. Learn more »
launch autoscroll
font size
0
reset
guitar tuner
backing track
0:00
0:00
edit
Autoscroll
slow
fast
+/-
esc
set tempo
stop
Author
Trivium
This World Can't Tear Us Apart
The Crusade

Definately need a 5 string to do this song, but its easy and totally awesome

Standard Tuning (B E A D G)

Intro                                                                                    
                               x2
|--------------------------------------------------------------------|
|--------------------------------------------------------------------|
|--------------------------------------------------------------------|
|----------------------------------5-5-5-5-5-5-5-5-------------------|
|-2-2-2-2-2-2-2-2-0-0-0-0-0-0-0-0-----------------0-0-0-0-0-0-0-0----|

Verse  (With bass drum)                                       x2
|-----------------------------------------|
|-----------------------------------------|
|-----------------------------------------|
|------------------5555-------------------|
|-2222----0000------------0000------------|

Prechorus (im not sure about rythm, but it follows the guitar up the fret board)
|--|--|--|--|--|      x2
|--|--|--|--|--|
|--|--|--|--|--|
|--|--|--|--|--|
|-2|-4|-5|-7|-9|

Chorus                                                                                   
                                x2
|--------------------------------------------------------------------|
|--------------------------------------------------------------------|
|--------------------------------------------------------------------|
|----------------------------------5-5-5-5-5-5-5-5-------------------|
|-2-2-2-2-2-2-2-2-0-0-0-0-0-0-0-0-----------------0-0-0-0-0-0-0-0----|

Verse  (With bass drum)                                       x2
|-----------------------------------------|
|-----------------------------------------|
|-----------------------------------------|
|------------------5555-------------------|
|-2222----0000------------0000------------|

Prechorus (im not sure about rythm, but it follows the guitar up the fret board)
|--|--|--|--|--|      x2
|--|--|--|--|--|
|--|--|--|--|--|
|--|--|--|--|--|
|-2|-4|-5|-7|-9|

Chorus                                                                                   
                                x2
|--------------------------------------------------------------------|
|--------------------------------------------------------------------|
|--------------------------------------------------------------------|
|----------------------------------5-5-5-5-5-5-5-5-------------------|
|-2-2-2-2-2-2-2-2-0-0-0-0-0-0-0-0-----------------0-0-0-0-0-0-0-0----|

PreSolo/Solo     all with guitar
|--|--|--|--|--|--|--|--|--|--|
|--|--|--|--|--|--|--|--|--|--|
|--|--|--|--|--|--|--|--|--|--|
|--|--|--|--|--|--|--|--|15|14|
|-2|-4|-5|-7|-9|10|12|14|--|--|

Pause

Chorus                                                                                   
                                x2
|--------------------------------------------------------------------|
|--------------------------------------------------------------------|
|--------------------------------------------------------------------|
|----------------------------------5-5-5-5-5-5-5-5-------------------|
|-2-2-2-2-2-2-2-2-0-0-0-0-0-0-0-0-----------------0-0-0-0-0-0-0-0----|

Second Solo
Chorus                                                                                   
                                x2
|--------------------------------------------------------------------|
|--------------------------------------------------------------------|
|--------------------------------------------------------------------|
|----------------------------------5-5-5-5-5-5-5-5-------------------|
|-2-2-2-2-2-2-2-2-0-0-0-0-0-0-0-0-----------------0-0-0-0-0-0-0-0----|

This a couple more times
|--|--|--|--|--|--|--|--|--|--|
|--|--|--|--|--|--|--|--|--|--|
|--|--|--|--|--|--|--|--|--|--|
|--|--|--|--|--|--|--|--|15|14|
|-2|-4|-5|-7|-9|10|12|14|--|--|

End
|---------------------------|
|---------------------------|
|---------------------------|
|---------------------------|
|-2---------0-0-------------|

Very easy. This should take you throught the entire song.

            
            
Suggest correction
Creating personal tab
Creating personal tab
You can edit any tab online and save it as your Personal.

You can edit, replace or remove any tab part or add personal notes – all changes will be seen only by you.

Personal tabs can be accessed anytime from any device, even offline.
Learn more »
Give kudos to tab author, rate the tab!
1 2 3 4 5
comments
print report bad tab
5 comments total. Showing first comments.
0 reply
_-Joey-_ 143 Feb 27, 2007 12:11 PM

Actually you don't have to have a 5-string, just cos its in BEADG!!!
If you don't use the highest string, just tune a 4-string down to BEAD!

But cheers loads for tabbing this, awesome job!

0 reply
STeven on bass! 10 Oct 01, 2007 10:51 PM

yea, that other guys right, sweet tab mate

0 reply
The-Light2 31 Apr 28, 2008 05:45 AM

their right mate i can eaayly play it on a four string giutar but thnxs for it anyway :):)

guest
You may want to rate the tab now too:
select rating
Wanna post a correction for this tab? Suggest correction