Oops, an error
Loading. Please wait.

Throes Of Perdition tab

version 2
version 2

Whole song

by Trivium
4,399 views 6 this week
no commentswrite comment
1 2 3 4 5
2 more votes to show rating
add to favorites
×
Save as Personal and add changes to this tab that will be seen only by you. Learn more ›
×
You can save this tab as Personal to edit and correct it or add notes. All changes will be seen only by you. Learn more »
launch autoscroll
font size
0
reset
how to read this tab
guitar tuner
backing track
0:00
0:00
edit
Autoscroll
slow
fast
+/-
esc
set tempo
stop
                          Throes Of Perdition

This is my first tab, I do accept opinions and what not. Also I tabbed this on a six 
don't own a seven to play it, so I hope you enjoy. Leave a comment if anything is wrong 
the tab.

      PM       PM PM PM PM PM PM PM PM PM PM PM PM PM PM PM
                                                |--3--|
      S        S  S  S  S  S  S  S  S  S  S  S  S  S  S  E
C#||--------------------------------------------------------|
G#||--------------------------------------------------------|
E ||--------------------------------------------------------|
B ||--0--------0--0--0--0--0--0--0--0--0--0--0--0--0--0--0--|
F#||--------------------------------------------------------|
B ||--------------------------------------------------------|


  PM PM PM PM PM PM PM PM PM PM PM PM PM PM PM PM
                                      |--3--|
  S  S  S  S  S  S  S  S  S  S  S  S  S  S  S  E
--------------------------------------------------|
--------------------------------------------------|
--------------------------------------------------|
--0--0--0--0--0--0--0--0--0--0--0--0--0--0--0--0--|
--------------------------------------------------|
--------------------------------------------------|


  PM PM PM PM PM PM PM PM PM PM PM PM PM PM PM PM
                                      |--3--|
  S  S  S  S  S  S  S  S  S  S  S  S  S  S  S  E
--------------------------------------------------|
--------------------------------------------------|
--------------------------------------------------|
--------------------------------------------------|
--3--3--3--3--3--3--3--3--3--3--3--3--3--3--3--3--|
--------------------------------------------------|


  PM PM PM PM PM PM PM PM PM PM PM PM PM PM PM PM
                                      |--3--|
  S  S  S  S  S  S  S  S  S  S  S  S  S  S  S  E
--------------------------------------------------|
--------------------------------------------------|
--------------------------------------------------|
--------------------------------------------------|
--------------------------------------------------|
--5--5--5--5--5--5--5--5--5--5--5--5--5--5--5--5--|


  PM PM PM PM PM PM PM PM PM PM PM PM PM PM PM PM
                                      |--3--|
  S  S  S  S  S  S  S  S  S  S  S  S  S  S  S  E
--------------------------------------------------|
--------------------------------------------------|
--------------------------------------------------|
--------------------------------------------------|
--1--1--1--1--1--1--1--1--1--1--1--1--1--1--1--1--|
--------------------------------------------------|


  PM PM PM PM PM PM PM PM PM PM PM PM PM PM PM PM
                                      |--3--|
  S  S  S  S  S  S  S  S  S  S  S  S  S  S  S  E
--------------------------------------------------|
--------------------------------------------------|
--------------------------------------------------|
--------------------------------------------------|
--1--1--1--1--1--1--1--1--1--1--1--1--1--1--1--1--|
--------------------------------------------------|


  PM PM PM PM PM PM PM PM PM PM PM PM PM PM PM PM
                                      |--3--|
  S  S  S  S  S  S  S  S  S  S  S  S  S  S  S  E
--------------------------------------------------|
--------------------------------------------------|
--------------------------------------------------|
--------------------------------------------------|
--------------------------------------------------|
--0--0--0--0--0--0--0--0--0--0--0--0--0--0--0--0--|


  PM PM PM PM PM PM PM PM PM PM PM PM PM PM PM PM
                                      |--3--|
  S  S  S  S  S  S  S  S  S  S  S  S  S  S  S  E
--------------------------------------------------|
--------------------------------------------------|
--------------------------------------------------|
--------------------------------------------------|
--------------------------------------------------|
--0--0--0--0--0--0--0--0--0--0--0--0--0--0--0--0--|


  PM PM PM PM PM PM PM PM PM PM PM PM PM PM PM PM
                                      |--3--|
  S  S  S  S  S  S  S  S  S  S  S  S  S  S  S  E
--------------------------------------------------|
--------------------------------------------------|
--------------------------------------------------|
--3--3--3--3--3--3--3--3--3--3--3--3--3--3--3--3--|
--------------------------------------------------|
--------------------------------------------------|


  PM PM PM PM PM PM PM PM PM PM PM PM PM PM PM PM
                                      |--3--|
  S  S  S  S  S  S  S  S  S  S  S  S  S  S  S  E
--------------------------------------------------|
--------------------------------------------------|
--------------------------------------------------|
--3--3--3--3--3--3--3--3--3--3--3--3--3--3--3--3--|
--------------------------------------------------|
--------------------------------------------------|


  PM PM PM PM PM PM PM PM PM PM PM PM PM PM PM PM
                                      |--3--|
  S  S  S  S  S  S  S  S  S  S  S  S  S  S  S  E
--------------------------------------------------|
--------------------------------------------------|
--------------------------------------------------|
--2--2--2--2--2--2--2--2--2--2--2--2--2--2--2--2--|
--------------------------------------------------|
--------------------------------------------------|


  PM PM PM PM PM PM PM PM PM PM PM PM PM PM PM PM
                                      |--3--|
  S  S  S  S  S  S  S  S  S  S  S  S  S  S  S  E
--------------------------------------------------|
--------------------------------------------------|
--------------------------------------------------|
--------------------------------------------------|
--1--1--1--1--1--1--1--1--1--1--1--1--1--1--1--1--|
--------------------------------------------------|


  PM PM PM PM PM PM PM PM PM PM PM PM PM PM PM PM
                                      |--3--|
  S  S  S  S  S  S  S  S  S  S  S  S  S  S  S  E
--------------------------------------------------|
--------------------------------------------------|
--------------------------------------------------|
--0--0--0--0--0--0--0--0--0--0--0--0--0--0--0--0--|
--------------------------------------------------|
--------------------------------------------------|


  PM PM PM PM PM PM PM PM PM PM PM PM PM PM PM PM
                                      |--3--|
  S  S  S  S  S  S  S  S  S  S  S  S  S  S  S  E
--------------------------------------------------|
--------------------------------------------------|
--------------------------------------------------|
--0--0--0--0--0--0--0--0--0--0--0--0--0--0--0--0--|
--------------------------------------------------|
--------------------------------------------------|


  PM PM PM PM   PM PM PM PM PM   PM PM PM   PM
  S  S  S  S  S S  S  S  S  S  S S  S  S  S S
-----------------------------------------------|
-----------------------------------------------|
-----------------------------------------------|
--0--0--0--0----0--0--0--0--0----0--0--0----0--|
--0--0--0--0----0--0--0--0--0----0--0--0----0--|
--0--0--0--0----0--0--0--0--0----0--0--0----0--|


  S S S S S S S S S S S S S S S S    S S S S S S S S S S S S S S S S
----------------------------------|----------------------------------|
----------------------------------|----------------------------------|
----------------------------------|----------------------------------|
----------------------------------|----------------------------------|
----------------------------------|----------------------------------|
--7-0-0-3-0-5-0-2-0-0-3-0-7-5-3-0-|--7-0-0-3-0-5-0-2-0-0-3-0-7-5-3-0-|


  S S S S S S S S S S S S S S S S    S S S S S S S S S S S S S S S S
----------------------------------|----------------------------------|
----------------------------------|----------------------------------|
----------------------------------|----------------------------------|
----------------------------------|----------------------------------|
----------------------------------|----------------------------------|
--7-0-0-3-0-5-0-2-0-0-3-0-7-5-3-0-|--7-0-0-3-0-5-0-2-0-0-3-0-7-5-3-0-|


  S S S S S S S S S S S S S S S S    S S S S S S S S S S S S S S S S
----------------------------------|----------------------------------|
----------------------------------|----------------------------------|
----------------------------------|----------------------------------|
----------------------------------|----------------------------------|
--0-----------------------0-------|--0-----------------------0-------|
----0-0-3-0-5-0-2-0-0-3-0---5-3-0-|----0-0-3-0-5-0-2-0-0-3-0---5-3-0-|


  S S S S S S S S S S S S S S S S    S S S S S S S S S S S S S S S S
----------------------------------|----------------------------------|
----------------------------------|----------------------------------|
----------------------------------|----------------------------------|
----------------------------------|----------------------------------|
--0-----------------------0-------|--0-----------------------0-------|
----0-0-3-0-5-0-2-0-0-3-0---5-3-0-|----0-0-3-0-5-0-2-0-0-3-0---5-3-0-|


  S S S S E  S S S S E  S S E     S S S S E  S S S S E  S S E
-------------------------------|-------------------------------|
-------------------------------|-------------------------------|
--2-2-2-2----2-2-2-2----2-2----|--2-2-2-2----2-2-2-2----2-2----|
--0-0-0-0----0-0-0-0----0-0----|-------------------------------|
-------------------------------|--4-4-4-4----4-4-4-4----4-4----|
-------------------------------|-------------------------------|


  S S S S E  S S S S E  S S E     E  E  E  Q.     Q
-------------------------------|-----------6------5----|
-------------------------------|-----------------------|
-------------------------------|-----------------------|
--3-3-3-3----3-3-3-3----3-3----|--2-----2--------------|
--1-1-1-1----1-1-1-1----1-1----|-----1-----------------|
-------------------------------|-----------------------|


  S S S S E  S S S S E  S S E     S S S S E  S S S S E  S S E
-------------------------------|-------------------------------|
-------------------------------|-------------------------------|
--2-2-2-2----2-2-2-2----2-2----|--2-2-2-2----2-2-2-2----2-2----|
--0-0-0-0----0-0-0-0----0-0----|-------------------------------|
-------------------------------|--4-4-4-4----4-4-4-4----4-4----|
-------------------------------|-------------------------------|


  S S S S E  S S S S E  S S E     S S S S E  S S S S E  S S E
-------------------------------|-------------------------------|
-------------------------------|-------------------------------|
-------------------------------|-------------------------------|
--3-3-3-3----3-3-3-3----3-3----|--2-2-2-2----2-2-2-2----2-2----|
--1-1-1-1----1-1-1-1----1-1----|--1-1-1-1----1-1-1-1----0-0----|
-------------------------------|-------------------------------|


  Q     E  H          E       Q     E  H          E
--------5--3~--------(3)~--|--------5--3~--------(1)~--|
--3S-----------------------|--2S-----------------------|
---------------------------|---------------------------|
---------------------------|---------------------------|
---------------------------|---------------------------|
---------------------------|---------------------------|


  E   E   E  H          E       E  Q    Q    Q      E
------0S--1--0~--------(0)~--|-----0--------------------|
-----------------------------|----------3----2~----(2)--|
--3S-------------------------|--2-----------------------|
-----------------------------|--------------------------|
-----------------------------|--------------------------|
-----------------------------|--------------------------|


  Q     E  H          E       Q     E  H          E
--------5--3~--------(3)~--|--------5--3~--------(1)~--|
--3S-----------------------|--2S-----------------------|
---------------------------|---------------------------|
---------------------------|---------------------------|
---------------------------|---------------------------|
---------------------------|---------------------------|


  E   E   E  H          E       E  Q    Q    Q      E
------0S--1--0~--------(0)~--|-----0--------------------|
-----------------------------|----------3----2~----(2)--|
--3S-------------------------|--2-----------------------|
-----------------------------|--------------------------|
-----------------------------|--------------------------|
-----------------------------|--------------------------|


  S S S S E  S S S S E  S S S S    S S S S E  S S S S E  Q
--------------------------------|-----------------------------|
--------------------------------|-----------------------------|
--------------------------------|-----------------------------|
--0----------0----------0-------|--0----------0---------------|
----3----------3----------3-----|----3----------3--------6----|
------0-0-0------0-0-0------0-0-|------0-0-0------0-0-0--6----|


  S S S S E  S S S S E  S S S S    S S S S E  S S S S E  Q
--------------------------------|-----------------------------|
--------------------------------|-----------------------------|
--------------------------------|-----------------------------|
--0----------0----------0-------|--0----------0---------------|
----3----------3----------3-----|----3----------3--------6----|
------0-0-0------0-0-0------0-0-|------0-0-0------0-0-0--6----|


  S S S S E  S S S S E  S S S S    S S S S E  S S S S E  Q
--------------------------------|-----------------------------|
--------------------------------|-----------------------------|
--------------------------------|-----------------------------|
--3----------3----------3-------|--3----------3---------------|
----3----------3----------3-----|----3----------3--------6----|
------0-0-0------0-0-0------0-0-|------0-0-0------0-0-0--6----|


  S S S S E  S S S S E  S S S S    S S S S E  S S S S E  Q
--------------------------------|-----------------------------|
--------------------------------|-----------------------------|
--------------------------------|-----------------------------|
--3----------3----------3-------|--3----------3---------------|
----3----------3----------3-----|----3----------3--------6----|
------0-0-0------0-0-0------0-0-|------0-0-0------0-0-0--6----|


  S S S S E  S S S S E  S S E     S S S S E  S S S S E  S S E
-------------------------------|-------------------------------|
-------------------------------|-------------------------------|
--2-2-2-2----2-2-2-2----2-2----|--2-2-2-2----2-2-2-2----2-2----|
--0-0-0-0----0-0-0-0----0-0----|-------------------------------|
-------------------------------|--4-4-4-4----4-4-4-4----4-4----|
-------------------------------|-------------------------------|


  S S S S E  S S S S E  S S E     E  E  E  Q.     Q
-------------------------------|-----------6------5----|
-------------------------------|-----------------------|
-------------------------------|-----------------------|
--3-3-3-3----3-3-3-3----3-3----|--2-----2--------------|
--1-1-1-1----1-1-1-1----1-1----|-----1-----------------|
-------------------------------|-----------------------|


  Q     E  H          E       Q     E  H          E
--------5--3~--------(3)~--|--------5--3~--------(1)~--|
--3S-----------------------|--2S-----------------------|
---------------------------|---------------------------|
---------------------------|---------------------------|
---------------------------|---------------------------|
---------------------------|---------------------------|


  E   E   E  H          E       E  Q    Q    Q     E
------0S--1--0~--------(0)~--|-----0-------------------|
-----------------------------|----------3----2~----2S--|
--3S-------------------------|--2----------------------|
-----------------------------|-------------------------|
-----------------------------|-------------------------|
-----------------------------|-------------------------|


  S S S S E  S S S S E  S S S S    S S S S E  S S S S E  Q
--------------------------------|-----------------------------|
--------------------------------|-----------------------------|
--------------------------------|-----------------------------|
--0----------0----------0-------|--0----------0---------------|
----3----------3----------3-----|----3----------3--------6----|
------0-0-0------0-0-0------0-0-|------0-0-0------0-0-0--6----|


  S S S S E  S S S S E  S S S S    S S S S E  S S S S E  Q
--------------------------------|-----------------------------|
--------------------------------|-----------------------------|
--------------------------------|-----------------------------|
--0----------0----------0-------|--0----------0---------------|
----3----------3----------3-----|----3----------3--------6----|
------0-0-0------0-0-0------0-0-|------0-0-0------0-0-0--6----|


  S S S S E  S S S S E  S S S S    S S S S E  S S S S E  Q
--------------------------------|-----------------------------|
--------------------------------|-----------------------------|
--------------------------------|-----------------------------|
--3----------3----------3-------|--3----------3---------------|
----3----------3----------3-----|----3----------3--------6----|
------0-0-0------0-0-0------0-0-|------0-0-0------0-0-0--6----|


  S S S S E  S S S S E  S S S S    S S S S E  S S S S E  Q
--------------------------------|-----------------------------|
--------------------------------|-----------------------------|
--------------------------------|-----------------------------|
--3----------3----------3-------|--3----------3---------------|
----3----------3----------3-----|----3----------3--------6----|
------0-0-0------0-0-0------0-0-|------0-0-0------0-0-0--6----|


  PM PM PM PM PM PM PM PM
  E  E  E  E  E  E  E  E     E  E  E  E  H           E  E  E  E  E  E  E  E
--------------------------|-----------------------|--------------------------|
--------------------------|-----------------------|--3--3--3--3--3--3--3--3--|
--------------------------|-----------------------|--2--2--2--2--2--2--2--2--|
--------------------------|-----------------------|--0--0--0--0--0--0--0--0--|
--0--0--0--0--0--0--0--0--|--0--0--0--0-----------|--------------------------|
--0--0--0--0--0--0--3--3--|--3--3--3--3-----------|--------------------------|


  E  E  E  E  E  E  E  E     E  E  E  E  E  E  E  E
--------------------------|--------------------------|
--3--3--3--3--3--3--3--3--|--1--1--1--1--1--1--1--1--|
--2--2--2--2--2--2--2--2--|--0--0--0--0--0--0--0--0--|
--0--0--0--0--0--0--0--0--|--------------------------|
--------------------------|--3--3--3--3--3--3--3--3--|
--------------------------|--------------------------|


  E  E  E  E  E  E  E  E     E  E  E  E  E  E  E  E
--------------------------|--------------------------|
--------------------------|--------------------------|
--0--0--0--0--0--0--0--0--|--3--3--3--3--3--3--3--3--|
--0--0--0--0--0--0--0--0--|--3--3--3--3--3--3--3--3--|
--------------------------|--1--1--1--1--1--1--1--1--|
--5--5--5--5--5--5--5--5--|--------------------------|


  E  E  E  E  E  E  Q        S S S S E  S S S S E  S S S S
--------------------------|--------------------------------|
--------------------4S----|--------------------------------|
--3--3--3--3--3--3--3S----|--------------------------------|
--3--3--3--3--3--3--------|--0----------0----------0-------|
--1--1--1--1--1--1--------|----3----------3----------3-----|
--------------------------|------0-0-0------0-0-0------0-0-|


  S S S S E  S S S S E  S S S S    E  E  E  E  E  E  E  E
--------------------------------|--------------------------|
--------------------------------|--3--3--3--3--3--3--3--3--|
--------------------------------|--2--2--2--2--2--2--2--2--|
--0----------0----------0-------|--0--0--0--0--0--0--0--0--|
----3----------3----------3-----|--------------------------|
------0-0-0------0-0-0------0-0-|--------------------------|


  E  E  E  E  E  E  E  E     E  E  E  E  E  E  E  E
--------------------------|--------------------------|
--3--3--3--3--3--3--3--3--|--1--1--1--1--1--1--1--1--|
--2--2--2--2--2--2--2--2--|--0--0--0--0--0--0--0--0--|
--0--0--0--0--0--0--0--0--|--------------------------|
--------------------------|--3--3--3--3--3--3--3--3--|
--------------------------|--------------------------|


  E  E  E  E  E  E  E  E     E  E  E  E  E  E  E  E
--------------------------|--------------------------|
--------------------------|--------------------------|
--0--0--0--0--0--0--0--0--|--3--3--3--3--3--3--3--3--|
--0--0--0--0--0--0--0--0--|--3--3--3--3--3--3--3--3--|
--------------------------|--1--1--1--1--1--1--1--1--|
--5--5--5--5--5--5--5--5--|--------------------------|


  E  E  E  E  E  E  Q        S S S S E  S S S S E  S S S S
--------------------------|--------------------------------|
--------------------4S----|--------------------------------|
--3--3--3--3--3--3--3S----|--------------------------------|
--3--3--3--3--3--3--------|--0----------0----------0-------|
--1--1--1--1--1--1--------|----3----------3----------3-----|
--------------------------|------0-0-0------0-0-0------0-0-|


                                    PM PM PM    PM
  S S S S E  S S E  E  E  E      E  E  E  E  E  E  E   E
------------------------------|---------------------------|
------------------------------|---------------------------|
------------------------------|---------------------------|
--0----------0----------------|--0--0--0--0--0--0--0------|
----3----------3-0--0--0--0S--|--1--1--1--1--1--1--1---0--|
------0-0-0------0--0--0--0S--|-----------------------10--|


     PM PM PM    PM              PM PM PM    PM PM PM
  E  E  E  E  E  E  E   E     E  E  E  E  E  E  E  E
---------------------------|--------------------------|
---------------------------|--------------------------|
---------------------------|--------------------------|
---------------------------|--0-----------0-----------|
--1--1--1--1--1--1--1---0--|--0--0--0--0--0--0--0--0--|
--5--5--5--5--5--5--5--10--|--0--0--0--0--0--0--0--0--|


     PM PM PM                   PM PM PM
  E  E  E  E  E  E   Q       E  E  E  E  E  E   Q
--------------------------|--------------------------|
--------------------------|--------------------------|
--------------------------|--------------------------|
--------------------------|--------------------------|
--0--0--0--0--0-----------|--0--0--0--0--0-----------|
--3--3--3--3-----5~-------|--3--3--3--3-----5~-------|


     PM PM PM    PM              PM PM PM    PM
  E  E  E  E  E  E  E   E     E  E  E  E  E  E  E   E
---------------------------|---------------------------|
---------------------------|---------------------------|
---------------------------|---------------------------|
--0--0--0--0--0--0--0------|---------------------------|
--1--1--1--1--1--1--1---0--|--1--1--1--1--1--1--1---0--|
-----------------------10--|--5--5--5--5--5--5--5--10--|


     PM PM PM    PM PM PM       PM PM PM
  E  E  E  E  E  E  E  E     E  E  E  E  E   E    Q
--------------------------|----------------------------|
--------------------------|----------------------------|
--------------------------|--------------2-------------|
--0-----------0-----------|-------------------7~-------|
--0--0--0--0--0--0--0--0--|--0--0--0--0--0--10~---L----|
--0--0--0--0--0--0--0--0--|--3--3--3--3--x---x---------|


  PM PM PM PM PM PM PM PM PM PM PM PM PM PM PM PM
  |--3--|  |--3--|        |--3--|  |--3--|
  S  S  S  S  S  S  E  E  S  S  S  S  S  S  E  E
--------------------------------------------------|
--------------------------------------------------|
--------------------------------------------------|
--------------------------------------------------|
--------------------------------------------------|
--0--0--0--0--0--0--0--0--0--0--0--0--0--0--0--0--|


  PM PM PM PM PM PM PM PM PM
  |--3--|  |--3--|
  S  S  S  S  S  S  E  E  E  E  E  E
--------------------------------------|
--------------------------------------|
--------------------------------------|
--------------------------------------|
-----------------------------3-----3--|
--0--0--0--0--0--0--0--0--0--3-----3--|


  PM PM PM PM PM PM PM PM PM PM PM PM PM PM PM PM
  |--3--|  |--3--|        |--3--|  |--3--|
  S  S  S  S  S  S  E  E  S  S  S  S  S  S  E  E
--------------------------------------------------|
--------------------------------------------------|
--------------------------------------------------|
--------------------------------------------------|
--------------------------------------------------|
--0--0--0--0--0--0--0--0--0--0--0--0--0--0--0--0--|


  PM PM PM PM PM PM PM PM PM PM PM PM PM PM PM PM PM
  |--3--|  |--3--|        |--3--|  |--3--|  |--3--|
  S  S  S  S  S  S  E  E  S  S  S  S  S  S  S  S  S    E
-----------------------------------------------------------|
-----------------------------------------------------------|
-----------------------------------------------------<>1b--|
-----------------------------------------------------------|
-----------------------------------------------------------|
--0--0--0--0--0--0--0--0--0--0--0--0--0--0--0--0--0--------|


  H.            Q         H          E  Q     E
---------------13S----|--------------------------|
----------------------|-----------------8----10--|
----------------------|--10~--------10-----------|
----------------------|--------------------------|
----------------------|--------------------------|
----------------------|--------------------------|


   Q.       S   S   E.   E.   E      E   S   S  E  E    H
--17~------17h-18p-15---13---12--|--12--13p-12-10--8~---L~--------|
---------------------------------|--------------------------------|
---------------------------------|--------------------------------|
---------------------------------|--------------------------------|
---------------------------------|--------------------------------|
---------------------------------|--------------------------------|


   E   S   S  Q     E   E    Q
--12--13p-12-------15---Lb---L~----|
-------------13--------------------|
-----------------------------------|
-----------------------------------|
-----------------------------------|
-----------------------------------|


   S  S  S  S  S  S  S  S  S  S  S  S  S  S  S  S
--10----------13----12----10----------13----12----|
-----11----11----11----11----11----11----11----11-|
--------10----------------------10----------------|
--------------------------------------------------|
--------------------------------------------------|
--------------------------------------------------|


   S  S  S  S  S  S  S  S  S  S  S  S  S  S  S S
--13-10----10-17----15----13----------17----15---|
--------10-------15----15----15----15----15------|
--------------------------------14---------------|
-------------------------------------------------|
-------------------------------------------------|
-------------------------------------------------|


   S   S  S  S  S   S  S   S  S   S  S  S  S   S  S   S
--17h----------20p----18p----17h----------20p----18h----|
------18-----------18-----18-----18-----------18-----18-|
---------17-17----------------------17-17---------------|
--------------------------------------------------------|
--------------------------------------------------------|
--------------------------------------------------------|


   |--3--|  |--3--|  |--3--|  |--3--|  |---3---|   |---3---|
   S  S  S  S  S  S  S  S  S  S  S  S  E   E   E   E   E   E
--20-18-17-15-13-12-22-20-18-17-15-13-22--20--22--24--22--24--|
--------------------------------------------------------------|
--------------------------------------------------------------|
--------------------------------------------------------------|
--------------------------------------------------------------|
--------------------------------------------------------------|


                 |--3--|  |--3--|  |--3--|  |--3-|
   Q      Q      S  S  S  S  S  S  S  S  S  S  S S
--24b-----L~---------------------------------------|
----------------23-22------------------------------|
----------------------24-22-21-19-17-15-14-12-10-9-|
---------------------------------------------------|
---------------------------------------------------|
---------------------------------------------------|


  |-3-| |-3-|
  S S S S S S Q     Q     Q        Q.     Q.     E   E
--------------------------------|--0------1------3---Lb--|
--------------------------1~----|------------------------|
--7-5-3-2-0---------------------|------------------------|
------------3-2~----3~----------|--2------3--------------|
--------------------------------|------------------------|
--------------------------------|--x------x--------------|


   Q    Q    Q    Q        S  S  S  S  S  S  S  S  S  S  S  S  S  S  S  S
---L----1----3----5----|--17-13----13-------------------------------------|
-----------------------|--------------------------------------------------|
-----------------------|--------15----15-14-15-14----14-------------------|
-----------------------|--------------------------------------------------|
-----------------------|--------------------------15----15-13-15-13-12-13-|
-----------------------|--------------------------------------------------|


  S  S S S S S S S H
-----------------------------|
-----------------5-6~--------|
-------------5-7-------------|
----10-8-7-8-----------------|
-----------------------------|
-----------------------------|


  |--3-|  |--3-| |--3-|  |--3--|  |--3--|  |--3--|  |--3--|  |--3--|
  S S  S  S  S S S S  S  S  S  S  S  S  S  S  S  S  S  S  S  S  S  S
--8-9-10-13-10-9-8-9-10-13-15-16-------------------------------------|
------------------------------------------18----------------18-20-21-|
---------------------------------17-18-19----19-18-17-18-19----------|
---------------------------------------------------------------------|
---------------------------------------------------------------------|
---------------------------------------------------------------------|


   |--3--|  |--3--|  |--3--|  |--3--|  |--3--|  |--3--|  |--3--|
   S  S  S  S  S  S  S  S  S  S  S  S  S  S  S  S  S  S  S  S  S  S  S
-----------------------------22----------------------------------22-20-|
-----20-21-22-21-20-18-20-21----21-20-18-20-21-22-21-20-18-20-21-------|
--22-------------------------------------------------------------------|
-----------------------------------------------------------------------|
-----------------------------------------------------------------------|
-----------------------------------------------------------------------|


   Q      H.               H         H
--20b-----L~------------|------------L~--------|
------------------------|----------------------|
------------------------|----------------------|
------------------------|----------------------|
------------------------|----------------------|
------------------------|----------------------|


  PM PM PM PM PM PM PM PM PM PM PM PM PM PM PM PM
  |--3--|  |--3--|        |--3--|  |--3--|
  S  S  S  S  S  S  E  E  S  S  S  S  S  S  E  E
--------------------------------------------------|
--------------------------------------------------|
--------------------------------------------------|
--------------------------------------------------|
--------------------------------------------------|
--0--0--0--0--0--0--0--0--0--0--0--0--0--0--0--0--|


  PM PM PM PM PM PM PM PM PM PM PM PM PM PM PM PM PM
  |--3--|  |--3--|        |--3--|  |--3--|  |--3--|
  S  S  S  S  S  S  E  E  S  S  S  S  S  S  S  S  S    E
-----------------------------------------------------------|
-----------------------------------------------------------|
-----------------------------------------------------<>1b--|
-----------------------------------------------------------|
-----------------------------------------------------------|
--0--0--0--0--0--0--0--0--0--0--0--0--0--0--0--0--0--------|


  PM PM PM PM PM PM PM PM PM PM PM PM PM PM PM PM
  |--3--|  |--3--|        |--3--|  |--3--|
  S  S  S  S  S  S  E  E  S  S  S  S  S  S  E  E
--------------------------------------------------|
--------------------------------------------------|
--------------------------------------------------|
--------------------------------------------------|
--------------------------------------------------|
--0--0--0--0--0--0--0--0--0--0--0--0--0--0--0--0--|


  PM PM PM PM PM PM PM PM PM
  |--3--|  |--3--|
  S  S  S  S  S  S  E  E  E  E  E  E
--------------------------------------|
--------------------------------------|
--------------------------------------|
--------------------------------------|
-----------------------------3-----3--|
--0--0--0--0--0--0--0--0--0--3-----3--|


  PM PM PM PM PM PM PM PM PM PM PM PM PM PM PM PM
  |--3--|  |--3--|        |--3--|  |--3--|
  S  S  S  S  S  S  E  E  S  S  S  S  S  S  E  E
--------------------------------------------------|
--------------------------------------------------|
--------------------------------------------------|
--------------------------------------------------|
--------------------------------------------------|
--0--0--0--0--0--0--0--0--0--0--0--0--0--0--0--0--|


  |--3--|  |--3--|  |--3--|  |--3--|
  E  E  E  E  E  E  E  E  E  E  E  E
--------------------------------------|-------------------|-------------------|
--------------------------------------|-------------------|-------------------|
--2--0-----0--------------------------|-------------------|-------------------|
--------3-----3--2--3--2--0--2--0-----|-------------------|-------------------|
-----------------------------------3--|-------------------|-------------------|
--------------------------------------|-------------------|-------------------|


                                          W                   W
-------------------|-------------------|-------------------|-------------------|
-------------------|-------------------|-------------------|-------------------|
-------------------|-------------------|--3----------------|--L----------------|
-------------------|-------------------|--3----------------|--L----------------|
-------------------|-------------------|--1----------------|--L----------------|
-------------------|-------------------|-------------------|-------------------|


     PM PM PM PM PM PM PM    PM PM PM PM
  E  E  E  E  E  E  E  E     E  E  E  E  E  Q.        E  E  E  E  E  E  E  E
--------------------------|------------------------|--------------------------|
--------------------------|------------------------|--3--3--3--3--3--3--3--3--|
--------------------------|------------------------|--2--2--2--2--2--2--2--2--|
--0-----------------------|--------------3---------|--0--0--0--0--0--0--0--0--|
--0--0--0--0--0--0--3--3--|--3--3--3--3--3---------|--------------------------|
--0--0--0--0--0--0--3--3--|--3--3--3--3--3---------|--------------------------|


  E  E  E  E  E  E  E  E     E  E  E  E  E  E  E  E
--------------------------|--------------------------|
--3--3--3--3--3--3--3--3--|--1--1--1--1--1--1--1--1--|
--2--2--2--2--2--2--2--2--|--0--0--0--0--0--0--0--0--|
--0--0--0--0--0--0--0--0--|--------------------------|
--------------------------|--3--3--3--3--3--3--3--3--|
--------------------------|--------------------------|


  E  E  E  E  E  E  E  E     E  E  E  E  E  E  E  E
--------------------------|--------------------------|
--------------------------|--------------------------|
--0--0--0--0--0--0--0--0--|--3--3--3--3--3--3--3--3--|
--0--0--0--0--0--0--0--0--|--3--3--3--3--3--3--3--3--|
--------------------------|--1--1--1--1--1--1--1--1--|
--5--5--5--5--5--5--5--5--|--------------------------|


  E  E  E  E  E  E  Q        S S S S E  S S S S E  S S S S
--------------------------|--------------------------------|
--------------------4S----|--------------------------------|
--3--3--3--3--3--3--3S----|--------------------------------|
--3--3--3--3--3--3--------|--0----------0----------0-------|
--1--1--1--1--1--1--------|----3----------3----------3-----|
--------------------------|------0-0-0------0-0-0------0-0-|


  S S S S E  S S S S E  S S S S    E  E  E  E  E  E  E  E
--------------------------------|--------------------------|
--------------------------------|--3--3--3--3--3--3--3--3--|
--------------------------------|--2--2--2--2--2--2--2--2--|
--0----------0----------0-------|--0--0--0--0--0--0--0--0--|
----3----------3----------3-----|--------------------------|
------0-0-0------0-0-0------0-0-|--------------------------|


  E  E  E  E  E  E  E  E     E  E  E  E  E  E  E  E
--------------------------|--------------------------|
--3--3--3--3--3--3--3--3--|--1--1--1--1--1--1--1--1--|
--2--2--2--2--2--2--2--2--|--0--0--0--0--0--0--0--0--|
--0--0--0--0--0--0--0--0--|--------------------------|
--------------------------|--3--3--3--3--3--3--3--3--|
--------------------------|--------------------------|


  E  E  E  E  E  E  E  E     E  E  E  E  E  E  E  E
--------------------------|--------------------------|
--------------------------|--------------------------|
--0--0--0--0--0--0--0--0--|--3--3--3--3--3--3--3--3--|
--0--0--0--0--0--0--0--0--|--3--3--3--3--3--3--3--3--|
--------------------------|--1--1--1--1--1--1--1--1--|
--5--5--5--5--5--5--5--5--|--------------------------|


  E  E  E  E  E  E  Q        S S S S E  S S S S E  S S S S
--------------------------|--------------------------------|
--------------------4S----|--------------------------------|
--3--3--3--3--3--3--3S----|--------------------------------|
--3--3--3--3--3--3--------|--0----------0----------0-------|
--1--1--1--1--1--1--------|----3----------3----------3-----|
--------------------------|------0-0-0------0-0-0------0-0-|


  S S S S E  S S S S S S S S S S    E  E  E  E  E  E  E  E
---------------------------------|--------------------------|
---------------------------------|--3--3--3--3--3--3--3--3--|
---------------------------------|--2--2--2--2--2--2--2--2--|
--0----------0-------------------|--0--0--0--0--0--0--0--0--|
----3----------3-----------------|--------------------------|
------0-0-0------0-0-0-0-0-0-0-0-|--------------------------|


  E  E  E  E  E  E  E  E     E  E  E  E  E  E  E  E
--------------------------|--------------------------|
--3--3--3--3--3--3--3--3--|--1--1--1--1--1--1--1--1--|
--2--2--2--2--2--2--2--2--|--0--0--0--0--0--0--0--0--|
--0--0--0--0--0--0--0--0--|--------------------------|
--------------------------|--3--3--3--3--3--3--3--3--|
--------------------------|--------------------------|


  E  E  E  E  E  E  E  E     E  E  E  E  E  E  E  E
--------------------------|--------------------------|
--------------------------|--------------------------|
--0--0--0--0--0--0--0--0--|--3--3--3--3--3--3--3--3--|
--0--0--0--0--0--0--0--0--|--3--3--3--3--3--3--3--3--|
--------------------------|--1--1--1--1--1--1--1--1--|
--5--5--5--5--5--5--5--5--|--------------------------|


  E  E  E  E  E  E  Q        S S S S E  S S S S E  S S S S
--------------------------|--------------------------------|
--------------------4S----|--------------------------------|
--3--3--3--3--3--3--3S----|--------------------------------|
--3--3--3--3--3--3--------|--0----------0----------0-------|
--1--1--1--1--1--1--------|----3----------3----------3-----|
--------------------------|------0-0-0------0-0-0------0-0-|


  S S S S E  S S S S E  S S S S
--------------------------------|
--------------------------------|
--------------------------------|
--0----------0----------0-------|
----3----------3----------3-----|
------0-0-0------0-0-0------0-0-|


  PM PM PM PM   PM PM PM PM PM   PM PM PM   PM
  S  S  S  S  S S  S  S  S  S  S S  S  S  S S
-----------------------------------------------|
-----------------------------------------------|
-----------------------------------------------|
--0--0--0--0----0--0--0--0--0----0--0--0----0--|
--0--0--0--0----0--0--0--0--0----0--0--0----0--|
--0--0--0--0----0--0--0--0--0----0--0--0----0--|


  S S S S S S S S S S S S S S S S    S S S S S S S S S S S S S S S S
----------------------------------|----------------------------------|
----------------------------------|----------------------------------|
----------------------------------|----------------------------------|
----------------------------------|----------------------------------|
--0-------------------------------|--0-------------------------------|
----0-0-3-0-5-0-2-0-0-3-0-5-3-2-0-|----0-0-3-0-5-0-2-0-0-3-0-5-3-2-0-|


  S S S S S S S S S S S S S S S S    S S S S S S S S S S S S S S S S
----------------------------------|----------------------------------|
----------------------------------|----------------------------------|
----------------------------------|----------------------------------|
----------------------------------|----------------------------------|
--0-------------------------------|--0-------------------------------|
----0-0-3-0-5-0-2-0-0-3-0-5-3-2-0-|----0-0-3-0-5-0-2-0-0-3-0-5-3-2-0-|


  S S S S S S S S S S S S S S S S    S S S S S S S S S S S S S S S S
----------------------------------|----------------------------------|
----------------------------------|----------------------------------|
----------------------------------|----------------------------------|
----------------------------------|----------------------------------|
--0-------------------------------|--0-------------------------------|
----0-0-3-0-5-0-2-0-0-3-0-5-3-2-0-|----0-0-3-0-5-0-2-0-0-3-0-5-3-2-0-|


  S S S S S S S S S S S S S S S S    S S S S S S S S S S S S S S S S
----------------------------------|----------------------------------|
----------------------------------|----------------------------------|
----------------------------------|----------------------------------|
----------------------------------|----------------------------------|
--0-------------------------------|--0-------------------------------|
----0-0-3-0-5-0-2-0-0-3-0-5-3-2-0-|----0-0-3-0-5-0-2-0-0-3-0-5-3-2-0-|


  W                   W                    W
-------------------|-------------------|--------------------|
--3----------------|--3----------------|--------------------|
-------------------|-------------------|--------------------|
--0----------------|--0----------------|--11----------------|
--x----------------|--x----------------|---x----------------|
-------------------|-------------------|--11----------------|


  W                   W                   W
-------------------|-------------------|-------------------||
-------------------|--3----------------|--L----------------||
-------------------|-------------------|-------------------||
--L----------------|--0----------------|--L----------------||
-------------------|--x----------------|-------------------||
--L----------------|-------------------|-------------------||


Duration Legend
---------------
W - whole
H - half
Q - quarter
E - 8th
S - 16th
T - 32nd
X - 64th
. - note dotted
|-n-|  - n-tuplets


Tablature Legend
----------------
L - tied note
x - dead note
g - grace note
(n) - ghost note
> - accentuded note
NH - natural harmonic
AH - artificial harmonic
TH - tapped harmonic
SH - semi harmonic
PH - pitch harmonic
h - hammer on
p - pull off
b - bend
br - bendRelease
pb - preBend
pbr - preBendRelease
brb - bendReleaseBend
\n/ - tremolo bar dip
\n - tremolo bar dive
-/n - tremolo bar Release up
/n\ - tremolo bar inverted dip
/n - tremolo bar return
-\n - tremolo bar Release down
S - shift slide
s - legato slide
/ -  slide into from below or out of upwards
\ -  slide into from above or out of downwards
~ - vibrato
W - wide vibrato
tr - trill
TP - tremolo picking
T - tapping
S - slap
P - pop
< - fade in
^ - brush up
v - brush down

            
            
Suggest correction
Creating personal tab
Creating personal tab
You can edit any tab online and save it as your Personal.

You can edit, replace or remove any tab part or add personal notes – all changes will be seen only by you.

Personal tabs can be accessed anytime from any device, even offline.
Learn more »
Give kudos to tab author, rate the tab!
1 2 3 4 5
comments
print report bad tab
guest
Wanna post a correction for this tab? Suggest correction